  0
SECTION
  2
HEADER
  9
$ACADVER
  1
AC1012
  9
$DWGCODEPAGE
  3
ansi_936
  9
$INSBASE
 10
0.0
 20
0.0
 30
0.0
  9
$EXTMIN
 10
1.000000000000000E+20
 20
1.000000000000000E+20
 30
1.000000000000000E+20
  9
$EXTMAX
 10
-1.000000000000000E+20
 20
-1.000000000000000E+20
 30
-1.000000000000000E+20
  9
$LIMMIN
 10
0.0
 20
0.0
  9
$LIMMAX
 10
12.0
 20
9.0
  9
$ORTHOMODE
 70
     0
  9
$REGENMODE
 70
     1
  9
$FILLMODE
 70
     1
  9
$QTEXTMODE
 70
     0
  9
$MIRRTEXT
 70
     1
  9
$DRAGMODE
 70
     2
  9
$LTSCALE
 40
1.0
  9
$OSMODE
 70
    37
  9
$ATTMODE
 70
     1
  9
$TEXTSIZE
 40
0.2
  9
$TRACEWID
 40
0.05
  9
$TEXTSTYLE
  7
STANDARD
  9
$CLAYER
  8
0
  9
$CELTYPE
  6
BYLAYER
  9
$CECOLOR
 62
   256
  9
$CELTSCALE
 40
1.0
  9
$DELOBJ
 70
     1
  9
$DISPSILH
 70
     0
  9
$DIMSCALE
 40
1.0
  9
$DIMASZ
 40
0.18
  9
$DIMEXO
 40
0.0625
  9
$DIMDLI
 40
0.38
  9
$DIMRND
 40
0.0
  9
$DIMDLE
 40
0.0
  9
$DIMEXE
 40
0.18
  9
$DIMTP
 40
0.0
  9
$DIMTM
 40
0.0
  9
$DIMTXT
 40
0.18
  9
$DIMCEN
 40
0.09
  9
$DIMTSZ
 40
0.0
  9
$DIMTOL
 70
     0
  9
$DIMLIM
 70
     0
  9
$DIMTIH
 70
     1
  9
$DIMTOH
 70
     1
  9
$DIMSE1
 70
     0
  9
$DIMSE2
 70
     0
  9
$DIMTAD
 70
     0
  9
$DIMZIN
 70
     0
  9
$DIMBLK
  1

  9
$DIMASO
 70
     1
  9
$DIMSHO
 70
     1
  9
$DIMPOST
  1

  9
$DIMAPOST
  1

  9
$DIMALT
 70
     0
  9
$DIMALTD
 70
     2
  9
$DIMALTF
 40
25.4
  9
$DIMLFAC
 40
1.0
  9
$DIMTOFL
 70
     0
  9
$DIMTVP
 40
0.0
  9
$DIMTIX
 70
     0
  9
$DIMSOXD
 70
     0
  9
$DIMSAH
 70
     0
  9
$DIMBLK1
  1

  9
$DIMBLK2
  1

  9
$DIMSTYLE
  2
STANDARD
  9
$DIMCLRD
 70
     0
  9
$DIMCLRE
 70
     0
  9
$DIMCLRT
 70
     0
  9
$DIMTFAC
 40
1.0
  9
$DIMGAP
 40
0.09
  9
$DIMJUST
 70
     0
  9
$DIMSD1
 70
     0
  9
$DIMSD2
 70
     0
  9
$DIMTOLJ
 70
     1
  9
$DIMTZIN
 70
     0
  9
$DIMALTZ
 70
     0
  9
$DIMALTTZ
 70
     0
  9
$DIMFIT
 70
     3
  9
$DIMUPT
 70
     0
  9
$DIMUNIT
 70
     2
  9
$DIMDEC
 70
     4
  9
$DIMTDEC
 70
     4
  9
$DIMALTU
 70
     2
  9
$DIMALTTD
 70
     2
  9
$DIMTXSTY
  7
STANDARD
  9
$DIMAUNIT
 70
     0
  9
$LUNITS
 70
     2
  9
$LUPREC
 70
     4
  9
$SKETCHINC
 40
0.1
  9
$FILLETRAD
 40
0.5
  9
$AUNITS
 70
     0
  9
$AUPREC
 70
     0
  9
$MENU
  1
.
  9
$ELEVATION
 40
0.0
  9
$PELEVATION
 40
0.0
  9
$THICKNESS
 40
0.0
  9
$LIMCHECK
 70
     0
  9
$CHAMFERA
 40
0.5
  9
$CHAMFERB
 40
0.5
  9
$CHAMFERC
 40
1.0
  9
$CHAMFERD
 40
0.0
  9
$SKPOLY
 70
     0
  9
$TDCREATE
 40
2458018.583523253
  9
$TDUPDATE
 40
2458018.5835239
  9
$TDINDWG
 40
0.0000000116
  9
$TDUSRTIMER
 40
0.0000000116
  9
$USRTIMER
 70
     1
  9
$ANGBASE
 50
0.0
  9
$ANGDIR
 70
     0
  9
$PDMODE
 70
     0
  9
$PDSIZE
 40
0.0
  9
$PLINEWID
 40
0.0
  9
$COORDS
 70
     1
  9
$SPLFRAME
 70
     0
  9
$SPLINETYPE
 70
     6
  9
$SPLINESEGS
 70
     8
  9
$ATTDIA
 70
     0
  9
$ATTREQ
 70
     1
  9
$HANDLING
 70
     1
  9
$HANDSEED
  5
F4
  9
$SURFTAB1
 70
     6
  9
$SURFTAB2
 70
     6
  9
$SURFTYPE
 70
     6
  9
$SURFU
 70
     6
  9
$SURFV
 70
     6
  9
$UCSNAME
  2

  9
$UCSORG
 10
0.0
 20
0.0
 30
0.0
  9
$UCSXDIR
 10
1.0
 20
0.0
 30
0.0
  9
$UCSYDIR
 10
0.0
 20
1.0
 30
0.0
  9
$PUCSNAME
  2

  9
$PUCSORG
 10
0.0
 20
0.0
 30
0.0
  9
$PUCSXDIR
 10
1.0
 20
0.0
 30
0.0
  9
$PUCSYDIR
 10
0.0
 20
1.0
 30
0.0
  9
$USERI1
 70
     0
  9
$USERI2
 70
     0
  9
$USERI3
 70
     0
  9
$USERI4
 70
     0
  9
$USERI5
 70
     0
  9
$USERR1
 40
0.0
  9
$USERR2
 40
0.0
  9
$USERR3
 40
0.0
  9
$USERR4
 40
0.0
  9
$USERR5
 40
0.0
  9
$WORLDVIEW
 70
     1
  9
$SHADEDGE
 70
     3
  9
$SHADEDIF
 70
    70
  9
$TILEMODE
 70
     1
  9
$MAXACTVP
 70
    64
  9
$PINSBASE
 10
0.0
 20
0.0
 30
0.0
  9
$PLIMCHECK
 70
     0
  9
$PEXTMIN
 10
1.000000000000000E+20
 20
1.000000000000000E+20
 30
1.000000000000000E+20
  9
$PEXTMAX
 10
-1.000000000000000E+20
 20
-1.000000000000000E+20
 30
-1.000000000000000E+20
  9
$PLIMMIN
 10
0.0
 20
0.0
  9
$PLIMMAX
 10
12.0
 20
9.0
  9
$UNITMODE
 70
     0
  9
$VISRETAIN
 70
     1
  9
$PLINEGEN
 70
     0
  9
$PSLTSCALE
 70
     1
  9
$TREEDEPTH
 70
  3020
  9
$PICKSTYLE
 70
     1
  9
$CMLSTYLE
  2
STANDARD
  9
$CMLJUST
 70
     0
  9
$CMLSCALE
 40
1.0
  9
$SAVEIMAGES
 70
     1
  0
ENDSEC
  0
SECTION
  2
CLASSES
  0
CLASS
  1
ACDBDICTIONARYWDFLT
  2
AcDbDictionaryWithDefault
  3
ObjectDBX Classes
 90
    32768
280
     0
281
     0
  0
CLASS
  1
VISUALSTYLE
  2
AcDbVisualStyle
  3
ObjectDBX Classes
 90
     4095
280
     0
281
     0
  0
CLASS
  1
MATERIAL
  2
AcDbMaterial
  3
ObjectDBX Classes
 90
     1153
280
     0
281
     0
  0
CLASS
  1
SUN
  2
AcDbSun
  3
SCENEOE
 90
     1024
280
     0
281
     0
  0
CLASS
  1
DICTIONARYVAR
  2
AcDbDictionaryVar
  3
ObjectDBX Classes
 90
        0
280
     0
281
     0
  0
CLASS
  1
XRECORD
  2
AcDbXrecord
  3
AutoCAD 2000
 90
    32768
280
     0
281
     0
  0
CLASS
  1
LWPOLYLINE
  2
AcDbPolyline
  3
AutoCAD 2000
 90
    32768
280
     0
281
     1
  0
CLASS
  1
HATCH
  2
AcDbHatch
  3
AutoCAD 2000
 90
    32768
280
     0
281
     1
  0
CLASS
  1
ACDBPLACEHOLDER
  2
AcDbPlaceHolder
  3
ObjectDBX Classes
 90
        0
280
     0
281
     0
  0
CLASS
  1
LAYOUT
  2
AcDbLayout
  3
ObjectDBX Classes
 90
        0
280
     0
281
     0
  0
ENDSEC
  0
SECTION
  2
TABLES
  0
TABLE
  2
VPORT
  5
8
330
0
100
AcDbSymbolTable
 70
     1
  0
VPORT
  5
29
330
8
100
AcDbSymbolTableRecord
100
AcDbViewportTableRecord
  2
*ACTIVE
 70
     0
 10
0.0
 20
0.0
 11
1.0
 21
1.0
 12
0.0
 22
0.0
 13
0.0
 23
0.0
 14
0.5
 24
0.5
 15
0.5
 25
0.5
 16
0.0
 26
0.0
 36
1.0
 17
493.500833209958
 27
-49.9991944319445
 37
0.0
 40
99.99838886388899
 41
9.870175686163861
 42
50.0
 43
0.0
 44
0.0
 50
0.0
 51
0.0
 71
     0
 72
   100
 73
     1
 74
     3
 75
     0
 76
     0
 77
     0
 78
     0
  0
ENDTAB
  0
TABLE
  2
LTYPE
  5
5
330
0
100
AcDbSymbolTable
 70
     1
  0
LTYPE
  5
14
330
5
100
AcDbSymbolTableRecord
100
AcDbLinetypeTableRecord
  2
BYBLOCK
 70
     0
  3

 72
    65
 73
     0
 40
0.0
  0
LTYPE
  5
15
330
5
100
AcDbSymbolTableRecord
100
AcDbLinetypeTableRecord
  2
BYLAYER
 70
     0
  3

 72
    65
 73
     0
 40
0.0
  0
LTYPE
  5
16
330
5
100
AcDbSymbolTableRecord
100
AcDbLinetypeTableRecord
  2
CONTINUOUS
 70
     0
  3
Solid line
 72
    65
 73
     0
 40
0.0
  0
ENDTAB
  0
TABLE
  2
LAYER
  5
2
330
0
100
AcDbSymbolTable
 70
     2
  0
LAYER
  5
10
330
2
100
AcDbSymbolTableRecord
100
AcDbLayerTableRecord
  2
0
 70
     0
 62
     7
  6
CONTINUOUS
  0
LAYER
  5
40
330
2
100
AcDbSymbolTableRecord
100
AcDbLayerTableRecord
  2
LAYER_1
 70
     0
 62
     7
  6
CONTINUOUS
  0
ENDTAB
  0
TABLE
  2
STYLE
  5
3
330
0
100
AcDbSymbolTable
 70
     1
  0
STYLE
  5
11
330
3
100
AcDbSymbolTableRecord
100
AcDbTextStyleTableRecord
  2
STANDARD
 70
     0
 40
0.0
 41
1.0
 50
0.0
 71
     0
 42
0.2
  3
txt
  4

  0
ENDTAB
  0
TABLE
  2
VIEW
  5
6
330
0
100
AcDbSymbolTable
 70
     0
  0
ENDTAB
  0
TABLE
  2
UCS
  5
7
330
0
100
AcDbSymbolTable
 70
     0
  0
ENDTAB
  0
TABLE
  2
APPID
  5
9
330
0
100
AcDbSymbolTable
 70
     1
  0
APPID
  5
12
330
9
100
AcDbSymbolTableRecord
100
AcDbRegAppTableRecord
  2
ACAD
 70
     0
  0
ENDTAB
  0
TABLE
  2
DIMSTYLE
  5
A
330
0
100
AcDbSymbolTable
 70
     1
  0
DIMSTYLE
105
27
330
A
100
AcDbSymbolTableRecord
100
AcDbDimStyleTableRecord
  2
STANDARD
 70
     0
  3

  4

  5

  6

  7

 40
1.0
 41
0.18
 42
0.0625
 43
0.38
 44
0.18
 45
0.0
 46
0.0
 47
0.0
 48
0.0
140
0.18
141
0.09
142
0.0
143
25.4
144
1.0
145
0.0
146
1.0
147
0.09
 71
     0
 72
     0
 73
     1
 74
     1
 75
     0
 76
     0
 77
     0
 78
     0
170
     0
171
     2
172
     0
173
     0
174
     0
175
     0
176
     0
177
     0
178
     0
270
     2
271
     4
272
     4
273
     2
274
     2
340
11
275
     0
280
     0
281
     0
282
     0
283
     1
284
     0
285
     0
286
     0
287
     3
288
     0
  0
ENDTAB
  0
TABLE
  2
BLOCK_RECORD
  5
1
330
0
100
AcDbSymbolTable
 70
     4
  0
BLOCK_RECORD
  5
1F
330
1
100
AcDbSymbolTableRecord
100
AcDbBlockTableRecord
  2
*MODEL_SPACE
  0
BLOCK_RECORD
  5
1B
330
1
100
AcDbSymbolTableRecord
100
AcDbBlockTableRecord
  2
*PAPER_SPACE
  0
BLOCK_RECORD
  5
4B
330
1
100
AcDbSymbolTableRecord
100
AcDbBlockTableRecord
  2
BLOCK_2
  0
BLOCK_RECORD
  5
69
330
1
100
AcDbSymbolTableRecord
100
AcDbBlockTableRecord
  2
BLOCK_3
  0
BLOCK_RECORD
  5
87
330
1
100
AcDbSymbolTableRecord
100
AcDbBlockTableRecord
  2
BLOCK_4
  0
ENDTAB
  0
ENDSEC
  0
SECTION
  2
BLOCKS
  0
BLOCK
  5
20
330
1F
100
AcDbEntity
  8
0
100
AcDbBlockBegin
  2
*MODEL_SPACE
 70
     0
 10
0.0
 20
0.0
 30
0.0
  3
*MODEL_SPACE
  1

  0
ENDBLK
  5
21
330
1F
100
AcDbEntity
  8
0
100
AcDbBlockEnd
  0
BLOCK
  5
1C
330
1B
100
AcDbEntity
 67
     1
  8
0
100
AcDbBlockBegin
  2
*PAPER_SPACE
 70
     0
 10
0.0
 20
0.0
 30
0.0
  3
*PAPER_SPACE
  1

  0
ENDBLK
  5
1D
330
1B
100
AcDbEntity
 67
     1
  8
0
100
AcDbBlockEnd
  0
BLOCK
  5
4D
330
4B
100
AcDbEntity
  8
0
100
AcDbBlockBegin
  2
BLOCK_2
 70
     0
 10
0.0
 20
0.0
 30
0.0
  3
BLOCK_2
  1

  0
SPLINE
  5
4F
330
4B
100
AcDbEntity
  8
LAYER_1
 62
   250
100
AcDbSpline
210
0.0
220
0.0
230
1.0
 70
    11
 71
     3
 72
    17
 73
    13
 74
     0
 42
0.0000000001
 43
0.0000000001
 12
1.0
 22
0.0
 32
0.0
 13
1.0
 23
0.0
 33
0.0
 40
0.0
 40
0.0
 40
0.0
 40
0.0
 40
1.0
 40
1.0
 40
1.0
 40
2.0
 40
2.0
 40
2.0
 40
3.0
 40
3.0
 40
3.0
 40
4.0
 40
4.0
 40
4.0
 40
4.0
 10
101.54009770398
 20
-38.85508215780538
 30
0.0
 10
86.07614066303263
 20
-38.85508215780538
 30
0.0
 10
73.54010567945875
 20
-51.39111714137959
 30
0.0
 10
73.54010567945875
 20
-66.85507418232696
 30
0.0
 10
73.54010567945875
 20
-82.31905275512113
 30
0.0
 10
86.07614066303263
 20
-94.85508773869502
 30
0.0
 10
101.54009770398
 20
-94.85508773869502
 30
0.0
 10
117.0040762767742
 20
-94.85508773869502
 30
0.0
 10
129.5401112603481
 20
-82.31905275512113
 30
0.0
 10
129.5401112603481
 20
-66.85507418232696
 30
0.0
 10
129.5401112603481
 20
-51.39111714137959
 30
0.0
 10
117.0040762767742
 20
-38.85508215780538
 30
0.0
 10
101.54009770398
 20
-38.85508215780538
 30
0.0
  0
SPLINE
  5
50
330
4B
100
AcDbEntity
  8
LAYER_1
 62
   250
100
AcDbSpline
210
0.0
220
0.0
230
1.0
 70
    11
 71
     3
 72
    17
 73
    13
 74
     0
 42
0.0000000001
 43
0.0000000001
 12
1.0
 22
0.0
 32
0.0
 13
1.0
 23
0.0
 33
0.0
 40
0.0
 40
0.0
 40
0.0
 40
0.0
 40
1.0
 40
1.0
 40
1.0
 40
2.0
 40
2.0
 40
2.0
 40
3.0
 40
3.0
 40
3.0
 40
4.0
 40
4.0
 40
4.0
 40
4.0
 10
101.54009770398
 20
-69.35509384858564
 30
0.0
 10
100.159389560879
 20
-69.35509384858564
 30
0.0
 10
99.04009956956811
 20
-68.23580385727475
 30
0.0
 10
99.04009956956811
 20
-66.85507418232696
 30
0.0
 10
99.04009956956811
 20
-65.47436603922596
 30
0.0
 10
100.159389560879
 20
-64.35507604791508
 30
0.0
 10
101.54009770398
 20
-64.35507604791508
 30
0.0
 10
102.9208273789278
 20
-64.35507604791508
 30
0.0
 10
104.0400958383919
 20
-65.47436603922596
 30
0.0
 10
104.0400958383919
 20
-66.85507418232696
 30
0.0
 10
104.0400958383919
 20
-68.23580385727475
 30
0.0
 10
102.9208273789278
 20
-69.35509384858564
 30
0.0
 10
101.54009770398
 20
-69.35509384858564
 30
0.0
  0
SPLINE
  5
51
330
4B
100
AcDbEntity
  8
LAYER_1
 62
   250
100
AcDbSpline
210
0.0
220
0.0
230
1.0
 70
    11
 71
     3
 72
    17
 73
    13
 74
     0
 42
0.0000000001
 43
0.0000000001
 12
1.0
 22
0.0
 32
0.0
 13
1.0
 23
0.0
 33
0.0
 40
0.0
 40
0.0
 40
0.0
 40
0.0
 40
1.0
 40
1.0
 40
1.0
 40
2.0
 40
2.0
 40
2.0
 40
3.0
 40
3.0
 40
3.0
 40
4.0
 40
4.0
 40
4.0
 40
4.0
 10
100.7901077972207
 20
-44.56952663452749
 30
0.0
 10
100.7901077973324
 20
-44.15531307228117
 30
0.0
 10
101.1258942349893
 20
-43.81952663480548
 30
0.0
 10
101.5401077972353
 20
-43.81952663491714
 30
0.0
 10
101.9543213594816
 20
-43.81952663502879
 30
0.0
 10
102.2901077969573
 20
-44.15531307268544
 30
0.0
 10
102.2901077968457
 20
-44.56952663493176
 30
0.0
 10
102.290107796734
 20
-44.98374019717809
 30
0.0
 10
101.9543213590774
 20
-45.31952663465378
 30
0.0
 10
101.5401077968311
 20
-45.31952663454211
 30
0.0
 10
101.1258942345847
 20
-45.31952663443046
 30
0.0
 10
100.790107797109
 20
-44.98374019677382
 30
0.0
 10
100.7901077972207
 20
-44.56952663452749
 30
0.0
  0
SPLINE
  5
52
330
4B
100
AcDbEntity
  8
LAYER_1
 62
   250
100
AcDbSpline
210
0.0
220
0.0
230
1.0
 70
    11
 71
     3
 72
    17
 73
    13
 74
     0
 42
0.0000000001
 43
0.0000000001
 12
1.0
 22
0.0
 32
0.0
 13
1.0
 23
0.0
 33
0.0
 40
0.0
 40
0.0
 40
0.0
 40
0.0
 40
1.0
 40
1.0
 40
1.0
 40
2.0
 40
2.0
 40
2.0
 40
3.0
 40
3.0
 40
3.0
 40
4.0
 40
4.0
 40
4.0
 40
4.0
 10
95.04773648355342
 20
-45.52300290634987
 30
0.0
 10
94.94053012501587
 20
-45.12290332894733
 30
0.0
 10
95.17796699216284
 20
-44.7116506117213
 30
0.0
 10
95.5780665695657
 20
-44.6044442531831
 30
0.0
 10
95.97816614696792
 20
-44.49723789464459
 30
0.0
 10
96.38941886419458
 20
-44.7346747617922
 30
0.0
 10
96.49662522273279
 20
-45.1347743391941
 30
0.0
 10
96.60383158127098
 20
-45.53487391659728
 30
0.0
 10
96.36639471412337
 20
-45.9461266338233
 30
0.0
 10
95.96629513672052
 20
-46.0533329923615
 30
0.0
 10
95.56619555931829
 20
-46.16053935090034
 30
0.0
 10
95.15494284209163
 20
-45.92310248375273
 30
0.0
 10
95.04773648355342
 20
-45.52300290634987
 30
0.0
  0
SPLINE
  5
53
330
4B
100
AcDbEntity
  8
LAYER_1
 62
   250
100
AcDbSpline
210
0.0
220
0.0
230
1.0
 70
    11
 71
     3
 72
    17
 73
    13
 74
     0
 42
0.0000000001
 43
0.0000000001
 12
1.0
 22
0.0
 32
0.0
 13
1.0
 23
0.0
 33
0.0
 40
0.0
 40
0.0
 40
0.0
 40
0.0
 40
1.0
 40
1.0
 40
1.0
 40
2.0
 40
2.0
 40
2.0
 40
3.0
 40
3.0
 40
3.0
 40
4.0
 40
4.0
 40
4.0
 40
4.0
 10
89.7478095457243
 20
-47.93022532204525
 30
0.0
 10
89.54070276470414
 20
-47.57150585448849
 30
0.0
 10
89.66360913122885
 20
-47.11281305056252
 30
0.0
 10
90.02232859878593
 20
-46.90570626954074
 30
0.0
 10
90.38104806634172
 20
-46.69859948851993
 30
0.0
 10
90.83974087026898
 20
-46.82150585504625
 30
0.0
 10
91.04684765128978
 20
-47.18022532260173
 30
0.0
 10
91.25395443231059
 20
-47.53894479015849
 30
0.0
 10
91.1310480657846
 20
-47.9976375940851
 30
0.0
 10
90.77232859822816
 20
-48.20474437510623
 30
0.0
 10
90.41360913067236
 20
-48.41185115612768
 30
0.0
 10
89.9549163267451
 20
-48.28894478960168
 30
0.0
 10
89.7478095457243
 20
-47.93022532204525
 30
0.0
  0
SPLINE
  5
54
330
4B
100
AcDbEntity
  8
LAYER_1
 62
   250
100
AcDbSpline
210
0.0
220
0.0
230
1.0
 70
    11
 71
     3
 72
    17
 73
    13
 74
     0
 42
0.0000000001
 43
0.0000000001
 12
1.0
 22
0.0
 32
0.0
 13
1.0
 23
0.0
 33
0.0
 40
0.0
 40
0.0
 40
0.0
 40
0.0
 40
1.0
 40
1.0
 40
1.0
 40
2.0
 40
2.0
 40
2.0
 40
3.0
 40
3.0
 40
3.0
 40
4.0
 40
4.0
 40
4.0
 40
4.0
 10
85.25150824598143
 20
-51.62714565211526
 30
0.0
 10
84.95861502734392
 20
-51.33425243330578
 30
0.0
 10
84.9586150274819
 20
-50.85937869923901
 30
0.0
 10
85.25150824629202
 20
-50.56648548060022
 30
0.0
 10
85.54440146510085
 20
-50.27359226196272
 30
0.0
 10
86.01927519916826
 20
-50.273592262101
 30
0.0
 10
86.31216841780576
 20
-50.56648548091017
 30
0.0
 10
86.60506163644456
 20
-50.85937869971964
 30
0.0
 10
86.60506163630531
 20
-51.33425243378706
 30
0.0
 10
86.31216841749583
 20
-51.6271456524252
 30
0.0
 10
86.019275198687
 20
-51.92003887106335
 30
0.0
 10
85.54440146461958
 20
-51.92003887092474
 30
0.0
 10
85.25150824598143
 20
-51.62714565211526
 30
0.0
  0
SPLINE
  5
55
330
4B
100
AcDbEntity
  8
LAYER_1
 62
   250
100
AcDbSpline
210
0.0
220
0.0
230
1.0
 70
    11
 71
     3
 72
    17
 73
    13
 74
     0
 42
0.0000000001
 43
0.0000000001
 12
1.0
 22
0.0
 32
0.0
 13
1.0
 23
0.0
 33
0.0
 40
0.0
 40
0.0
 40
0.0
 40
0.0
 40
1.0
 40
1.0
 40
1.0
 40
2.0
 40
2.0
 40
2.0
 40
3.0
 40
3.0
 40
3.0
 40
4.0
 40
4.0
 40
4.0
 40
4.0
 10
81.86524808739642
 20
-56.36182488553126
 30
0.0
 10
81.50652861996191
 20
-56.15471810429933
 30
0.0
 10
81.38362225370285
 20
-55.69602530030213
 30
0.0
 10
81.59072903493414
 20
-55.33730583286569
 30
0.0
 10
81.79783581616479
 20
-54.97858636543118
 30
0.0
 10
82.25652862016328
 20
-54.85567999917276
 30
0.0
 10
82.61524808759779
 20
-55.06278678040341
 30
0.0
 10
82.97396755503358
 20
-55.26989356163405
 30
0.0
 10
83.09687392129136
 20
-55.72858636563189
 30
0.0
 10
82.88976714006071
 20
-56.08730583306833
 30
0.0
 10
82.6826603588307
 20
-56.44602530050349
 30
0.0
 10
82.22396755483159
 20
-56.56893166676191
 30
0.0
 10
81.86524808739642
 20
-56.36182488553126
 30
0.0
  0
SPLINE
  5
56
330
4B
100
AcDbEntity
  8
LAYER_1
 62
   250
100
AcDbSpline
210
0.0
220
0.0
230
1.0
 70
    11
 71
     3
 72
    17
 73
    13
 74
     0
 42
0.0000000001
 43
0.0000000001
 12
1.0
 22
0.0
 32
0.0
 13
1.0
 23
0.0
 33
0.0
 40
0.0
 40
0.0
 40
0.0
 40
0.0
 40
1.0
 40
1.0
 40
1.0
 40
2.0
 40
2.0
 40
2.0
 40
3.0
 40
3.0
 40
3.0
 40
4.0
 40
4.0
 40
4.0
 40
4.0
 10
79.81979710370356
 20
-61.81160245697939
 30
0.0
 10
79.41969752636487
 20
-61.70439609820633
 30
0.0
 10
79.18226065945662
 20
-61.29314338084298
 30
0.0
 10
79.28946701822903
 20
-60.89304380350173
 30
0.0
 10
79.39667337700145
 20
-60.49294422616303
 30
0.0
 10
79.80792609436608
 20
-60.25550735925478
 30
0.0
 10
80.20802567170541
 20
-60.36271371802719
 30
0.0
 10
80.60812524904539
 20
-60.46992007679897
 30
0.0
 10
80.84556211595236
 20
-60.8811727941636
 30
0.0
 10
80.73835575718059
 20
-61.28127237150486
 30
0.0
 10
80.63114939840945
 20
-61.68137194884483
 30
0.0
 10
80.21989668104354
 20
-61.91880881575181
 30
0.0
 10
79.81979710370356
 20
-61.81160245697939
 30
0.0
  0
SPLINE
  5
57
330
4B
100
AcDbEntity
  8
LAYER_1
 62
   250
100
AcDbSpline
210
0.0
220
0.0
230
1.0
 70
    11
 71
     3
 72
    17
 73
    13
 74
     0
 42
0.0000000001
 43
0.0000000001
 12
1.0
 22
0.0
 32
0.0
 13
1.0
 23
0.0
 33
0.0
 40
0.0
 40
0.0
 40
0.0
 40
0.0
 40
1.0
 40
1.0
 40
1.0
 40
2.0
 40
2.0
 40
2.0
 40
3.0
 40
3.0
 40
3.0
 40
4.0
 40
4.0
 40
4.0
 40
4.0
 10
79.25454939916658
 20
-67.60508503117185
 30
0.0
 10
78.84033583692154
 20
-67.6050850310403
 30
0.0
 10
78.50454939946061
 20
-67.26929859337018
 30
0.0
 10
78.50454939959087
 20
-66.85508503112258
 30
0.0
 10
78.50454939972178
 20
-66.4408714688769
 30
0.0
 10
78.84033583739318
 20
-66.10508503141597
 30
0.0
 10
79.25454939963886
 20
-66.10508503154688
 30
0.0
 10
79.6687629618852
 20
-66.1050850316765
 30
0.0
 10
80.00454939934484
 20
-66.44087146934855
 30
0.0
 10
80.00454939921521
 20
-66.85508503159551
 30
0.0
 10
80.00454939908559
 20
-67.26929859384119
 30
0.0
 10
79.66876296141353
 20
-67.60508503130276
 30
0.0
 10
79.25454939916658
 20
-67.60508503117185
 30
0.0
  0
SPLINE
  5
58
330
4B
100
AcDbEntity
  8
LAYER_1
 62
   250
100
AcDbSpline
210
0.0
220
0.0
230
1.0
 70
    11
 71
     3
 72
    17
 73
    13
 74
     0
 42
0.0000000001
 43
0.0000000001
 12
1.0
 22
0.0
 32
0.0
 13
1.0
 23
0.0
 33
0.0
 40
0.0
 40
0.0
 40
0.0
 40
0.0
 40
1.0
 40
1.0
 40
1.0
 40
2.0
 40
2.0
 40
2.0
 40
3.0
 40
3.0
 40
3.0
 40
4.0
 40
4.0
 40
4.0
 40
4.0
 10
80.20802567073132
 20
-73.34745634488212
 30
0.0
 10
79.8079260933246
 20
-73.45466270340043
 30
0.0
 10
79.39667337610949
 20
-73.21722583623614
 30
0.0
 10
79.2894670175886
 20
-72.81712625882814
 30
0.0
 10
79.18226065906903
 20
-72.41702668142014
 30
0.0
 10
79.4196975262346
 20
-72.00577396420438
 30
0.0
 10
79.81979710364196
 20
-71.89856760568544
 30
0.0
 10
80.2198966810493
 20
-71.79136124716457
 30
0.0
 10
80.63114939826379
 20
-72.02879811433078
 30
0.0
 10
80.7383557567853
 20
-72.42889769173878
 30
0.0
 10
80.84556211530617
 20
-72.82899726914549
 30
0.0
 10
80.6081252481393
 20
-73.24024998636189
 30
0.0
 10
80.20802567073132
 20
-73.34745634488212
 30
0.0
  0
SPLINE
  5
59
330
4B
100
AcDbEntity
  8
LAYER_1
 62
   250
100
AcDbSpline
210
0.0
220
0.0
230
1.0
 70
    11
 71
     3
 72
    17
 73
    13
 74
     0
 42
0.0000000001
 43
0.0000000001
 12
1.0
 22
0.0
 32
0.0
 13
1.0
 23
0.0
 33
0.0
 40
0.0
 40
0.0
 40
0.0
 40
0.0
 40
1.0
 40
1.0
 40
1.0
 40
2.0
 40
2.0
 40
2.0
 40
3.0
 40
3.0
 40
3.0
 40
4.0
 40
4.0
 40
4.0
 40
4.0
 10
82.61524808618861
 20
-78.6473832828197
 30
0.0
 10
82.2565286186232
 20
-78.85449006382318
 30
0.0
 10
81.797835814703
 20
-78.73158369727793
 30
0.0
 10
81.59072903369758
 20
-78.37286422971059
 30
0.0
 10
81.38362225269283
 20
-78.01414476214516
 30
0.0
 10
81.50652861923872
 20
-77.55545195822368
 30
0.0
 10
81.86524808680478
 20
-77.34834517722085
 30
0.0
 10
82.2239675543702
 20
-77.14123839621479
 30
0.0
 10
82.68266035829039
 20
-77.26414476276197
 30
0.0
 10
82.88976713929709
 20
-77.6228642303274
 30
0.0
 10
83.09687392030186
 20
-77.98158369789282
 30
0.0
 10
82.97396755375468
 20
-78.44027650181494
 30
0.0
 10
82.61524808618861
 20
-78.6473832828197
 30
0.0
  0
SPLINE
  5
5A
330
4B
100
AcDbEntity
  8
LAYER_1
 62
   250
100
AcDbSpline
210
0.0
220
0.0
230
1.0
 70
    11
 71
     3
 72
    17
 73
    13
 74
     0
 42
0.0000000001
 43
0.0000000001
 12
1.0
 22
0.0
 32
0.0
 13
1.0
 23
0.0
 33
0.0
 40
0.0
 40
0.0
 40
0.0
 40
0.0
 40
1.0
 40
1.0
 40
1.0
 40
2.0
 40
2.0
 40
2.0
 40
3.0
 40
3.0
 40
3.0
 40
4.0
 40
4.0
 40
4.0
 40
4.0
 10
86.31216841605713
 20
-83.14368458272813
 30
0.0
 10
86.01927519723418
 20
-83.4365778013515
 30
0.0
 10
85.5444014631687
 20
-83.43657780119237
 30
0.0
 10
85.25150824454275
 20
-83.14368458236878
 30
0.0
 10
84.95861502591808
 20
-82.85079136354646
 30
0.0
 10
84.95861502607721
 20
-82.37591762947969
 30
0.0
 10
85.25150824490017
 20
-82.08302441085566
 30
0.0
 10
85.54440146372312
 20
-81.79013119223035
 30
0.0
 10
86.01927519778862
 20
-81.79013119239077
 30
0.0
 10
86.31216841641584
 20
-82.08302441121309
 30
0.0
 10
86.60506163504051
 20
-82.37591763003476
 30
0.0
 10
86.60506163488009
 20
-82.85079136410282
 30
0.0
 10
86.31216841605713
 20
-83.14368458272813
 30
0.0
  0
SPLINE
  5
5B
330
4B
100
AcDbEntity
  8
LAYER_1
 62
   250
100
AcDbSpline
210
0.0
220
0.0
230
1.0
 70
    11
 71
     3
 72
    17
 73
    13
 74
     0
 42
0.0000000001
 43
0.0000000001
 12
1.0
 22
0.0
 32
0.0
 13
1.0
 23
0.0
 33
0.0
 40
0.0
 40
0.0
 40
0.0
 40
0.0
 40
1.0
 40
1.0
 40
1.0
 40
2.0
 40
2.0
 40
2.0
 40
3.0
 40
3.0
 40
3.0
 40
4.0
 40
4.0
 40
4.0
 40
4.0
 10
91.04684764932041
 20
-86.52994474152553
 30
0.0
 10
90.83974086807308
 20
-86.88866420895042
 30
0.0
 10
90.38104806407075
 20
-87.0115705751883
 30
0.0
 10
90.02232859664329
 20
-86.80446379394033
 30
0.0
 10
89.66360912921776
 20
-86.59735701269364
 30
0.0
 10
89.54070276297924
 20
-86.13866420869067
 30
0.0
 10
89.74780954422721
 20
-85.77994474126514
 30
0.0
 10
89.95491632547454
 20
-85.42122527383896
 30
0.0
 10
90.41360912947688
 20
-85.298318907603
 30
0.0
 10
90.77232859690497
 20
-85.50542568884842
 30
0.0
 10
91.1310480643305
 20
-85.71253247009446
 30
0.0
 10
91.25395443056775
 20
-86.17122527409936
 30
0.0
 10
91.04684764932041
 20
-86.52994474152553
 30
0.0
  0
SPLINE
  5
5C
330
4B
100
AcDbEntity
  8
LAYER_1
 62
   250
100
AcDbSpline
210
0.0
220
0.0
230
1.0
 70
    11
 71
     3
 72
    17
 73
    13
 74
     0
 42
0.0000000001
 43
0.0000000001
 12
1.0
 22
0.0
 32
0.0
 13
1.0
 23
0.0
 33
0.0
 40
0.0
 40
0.0
 40
0.0
 40
0.0
 40
1.0
 40
1.0
 40
1.0
 40
2.0
 40
2.0
 40
2.0
 40
3.0
 40
3.0
 40
3.0
 40
4.0
 40
4.0
 40
4.0
 40
4.0
 10
96.49662522067742
 20
-88.57539572546288
 30
0.0
 10
96.3894188618864
 20
-88.97549530279709
 30
0.0
 10
95.97816614451278
 20
-89.21293216968608
 30
0.0
 10
95.57806656717601
 20
-89.10572581089507
 30
0.0
 10
95.17796698984117
 20
-88.99851945210533
 30
0.0
 10
94.94053012295153
 20
-88.58726673473042
 30
0.0
 10
95.04773648174255
 20
-88.18716715739558
 30
0.0
 10
95.15494284053358
 20
-87.7870675800601
 30
0.0
 10
95.56619555790783
 20
-87.54963071317302
 30
0.0
 10
95.96629513524461
 20
-87.65683707196148
 30
0.0
 10
96.36639471257881
 20
-87.76404343075058
 30
0.0
 10
96.60383157946781
 20
-88.1752961481274
 30
0.0
 10
96.49662522067742
 20
-88.57539572546288
 30
0.0
  0
SPLINE
  5
5D
330
4B
100
AcDbEntity
  8
LAYER_1
 62
   250
100
AcDbSpline
210
0.0
220
0.0
230
1.0
 70
    11
 71
     3
 72
    17
 73
    13
 74
     0
 42
0.0000000001
 43
0.0000000001
 12
1.0
 22
0.0
 32
0.0
 13
1.0
 23
0.0
 33
0.0
 40
0.0
 40
0.0
 40
0.0
 40
0.0
 40
1.0
 40
1.0
 40
1.0
 40
2.0
 40
2.0
 40
2.0
 40
3.0
 40
3.0
 40
3.0
 40
4.0
 40
4.0
 40
4.0
 40
4.0
 10
102.2901077948449
 20
-89.14064343025976
 30
0.0
 10
102.2901077946947
 20
-89.55485699250544
 30
0.0
 10
101.9543213570098
 20
-89.89064342995097
 30
0.0
 10
101.5401077947609
 20
-89.8906434298021
 30
0.0
 10
101.1258942325153
 20
-89.89064342965193
 30
0.0
 10
100.7901077950697
 20
-89.55485699196706
 30
0.0
 10
100.7901077952192
 20
-89.14064342972009
 30
0.0
 10
100.7901077953694
 20
-88.72642986747313
 30
0.0
 10
101.1258942330549
 20
-88.39064343002953
 30
0.0
 10
101.5401077953025
 20
-88.39064343017711
 30
0.0
 10
101.9543213575485
 20
-88.39064343032534
 30
0.0
 10
102.2901077949937
 20
-88.72642986801344
 30
0.0
 10
102.2901077948449
 20
-89.14064343025976
 30
0.0
  0
SPLINE
  5
5E
330
4B
100
AcDbEntity
  8
LAYER_1
 62
   250
100
AcDbSpline
210
0.0
220
0.0
230
1.0
 70
    11
 71
     3
 72
    17
 73
    13
 74
     0
 42
0.0000000001
 43
0.0000000001
 12
1.0
 22
0.0
 32
0.0
 13
1.0
 23
0.0
 33
0.0
 40
0.0
 40
0.0
 40
0.0
 40
0.0
 40
1.0
 40
1.0
 40
1.0
 40
2.0
 40
2.0
 40
2.0
 40
3.0
 40
3.0
 40
3.0
 40
4.0
 40
4.0
 40
4.0
 40
4.0
 10
108.0324791085975
 20
-88.18716715895299
 30
0.0
 10
108.1396854670985
 20
-88.58726673636548
 30
0.0
 10
107.9022485999162
 20
-88.99851945356903
 30
0.0
 10
107.5021490225011
 20
-89.1057258120713
 30
0.0
 10
107.1020494450893
 20
-89.21293217057291
 30
0.0
 10
106.6907967278851
 20
-88.97549530339066
 30
0.0
 10
106.5835903693828
 20
-88.57539572597753
 30
0.0
 10
106.4763840108815
 20
-88.1752961485644
 30
0.0
 10
106.7138208780654
 20
-87.76404343136147
 30
0.0
 10
107.1139204554785
 20
-87.65683707285729
 30
0.0
 10
107.5140200328904
 20
-87.54963071435503
 30
0.0
 10
107.9252727500952
 20
-87.7870675815405
 30
0.0
 10
108.0324791085975
 20
-88.18716715895299
 30
0.0
  0
SPLINE
  5
5F
330
4B
100
AcDbEntity
  8
LAYER_1
 62
   250
100
AcDbSpline
210
0.0
220
0.0
230
1.0
 70
    11
 71
     3
 72
    17
 73
    13
 74
     0
 42
0.0000000001
 43
0.0000000001
 12
1.0
 22
0.0
 32
0.0
 13
1.0
 23
0.0
 33
0.0
 40
0.0
 40
0.0
 40
0.0
 40
0.0
 40
1.0
 40
1.0
 40
1.0
 40
2.0
 40
2.0
 40
2.0
 40
3.0
 40
3.0
 40
3.0
 40
4.0
 40
4.0
 40
4.0
 40
4.0
 10
113.3324060466435
 20
-85.77994474373375
 30
0.0
 10
113.5395128276313
 20
-86.1386642113088
 30
0.0
 10
113.4166064610652
 20
-86.59735701522322
 30
0.0
 10
113.0578869934882
 20
-86.80446379621323
 30
0.0
 10
112.6991675259131
 20
-87.01157057720067
 30
0.0
 10
112.2404747219987
 20
-86.88866421063489
 30
0.0
 10
112.0333679410094
 20
-86.52994474305983
 30
0.0
 10
111.8262611600219
 20
-86.17122527548351
 30
0.0
 10
111.949167526589
 20
-85.71253247156973
 30
0.0
 10
112.307886994164
 20
-85.50542569057907
 30
0.0
 10
112.6666064617384
 20
-85.29831890959035
 30
0.0
 10
113.1252992656551
 20
-85.42122527615871
 30
0.0
 10
113.3324060466435
 20
-85.77994474373375
 30
0.0
  0
SPLINE
  5
60
330
4B
100
AcDbEntity
  8
LAYER_1
 62
   250
100
AcDbSpline
210
0.0
220
0.0
230
1.0
 70
    11
 71
     3
 72
    17
 73
    13
 74
     0
 42
0.0000000001
 43
0.0000000001
 12
1.0
 22
0.0
 32
0.0
 13
1.0
 23
0.0
 33
0.0
 40
0.0
 40
0.0
 40
0.0
 40
0.0
 40
1.0
 40
1.0
 40
1.0
 40
2.0
 40
2.0
 40
2.0
 40
3.0
 40
3.0
 40
3.0
 40
4.0
 40
4.0
 40
4.0
 40
4.0
 10
117.8287073467181
 20
-82.08302441406673
 30
0.0
 10
118.121600565329
 20
-82.37591763290251
 30
0.0
 10
118.121600565149
 20
-82.85079136696864
 30
0.0
 10
117.828707346311
 20
-83.14368458558175
 30
0.0
 10
117.5358141274749
 20
-83.43657780419295
 30
0.0
 10
117.0609403934094
 20
-83.43657780401263
 30
0.0
 10
116.7680471747969
 20
-83.14368458517684
 30
0.0
 10
116.4751539561863
 20
-82.85079136633978
 30
0.0
 10
116.4751539563679
 20
-82.37591763227428
 30
0.0
 10
116.7680471752037
 20
-82.08302441366116
 30
0.0
 10
117.0609403940382
 20
-81.79013119504869
 30
0.0
 10
117.5358141281063
 20
-81.79013119523093
 30
0.0
 10
117.8287073467181
 20
-82.08302441406673
 30
0.0
  0
SPLINE
  5
61
330
4B
100
AcDbEntity
  8
LAYER_1
 62
   250
100
AcDbSpline
210
0.0
220
0.0
230
1.0
 70
    11
 71
     3
 72
    17
 73
    13
 74
     0
 42
0.0000000001
 43
0.0000000001
 12
1.0
 22
0.0
 32
0.0
 13
1.0
 23
0.0
 33
0.0
 40
0.0
 40
0.0
 40
0.0
 40
0.0
 40
1.0
 40
1.0
 40
1.0
 40
2.0
 40
2.0
 40
2.0
 40
3.0
 40
3.0
 40
3.0
 40
4.0
 40
4.0
 40
4.0
 40
4.0
 10
121.2149675057286
 20
-77.34834518095553
 30
0.0
 10
121.5736869731439
 20
-77.55545196222019
 30
0.0
 10
121.6965933393618
 20
-78.014144766227
 30
0.0
 10
121.4894865580972
 20
-78.37286423364485
 30
0.0
 10
121.2823797768341
 20
-78.73158370106138
 30
0.0
 10
120.8236869728257
 20
-78.85449006727937
 30
0.0
 10
120.4649675054091
 20
-78.64738328601601
 30
0.0
 10
120.1062480379926
 20
-78.44027650475135
 30
0.0
 10
119.9833416717765
 20
-77.98158370074324
 30
0.0
 10
120.1904484530393
 20
-77.62286423332542
 30
0.0
 10
120.3975552343014
 20
-77.26414476590887
 30
0.0
 10
120.856248038312
 20
-77.1412383996928
 30
0.0
 10
121.2149675057286
 20
-77.34834518095553
 30
0.0
  0
SPLINE
  5
62
330
4B
100
AcDbEntity
  8
LAYER_1
 62
   250
100
AcDbSpline
210
0.0
220
0.0
230
1.0
 70
    11
 71
     3
 72
    17
 73
    13
 74
     0
 42
0.0000000001
 43
0.0000000001
 12
1.0
 22
0.0
 32
0.0
 13
1.0
 23
0.0
 33
0.0
 40
0.0
 40
0.0
 40
0.0
 40
0.0
 40
1.0
 40
1.0
 40
1.0
 40
2.0
 40
2.0
 40
2.0
 40
3.0
 40
3.0
 40
3.0
 40
4.0
 40
4.0
 40
4.0
 40
4.0
 10
123.2604184899107
 20
-71.89856760969029
 30
0.0
 10
123.6605180672395
 20
-72.00577396849992
 30
0.0
 10
123.8979549341108
 20
-72.4170266858838
 30
0.0
 10
123.7907485753015
 20
-72.81712626321543
 30
0.0
 10
123.6835422164925
 20
-73.21722584054578
 30
0.0
 10
123.272289499108
 20
-73.45466270741618
 30
0.0
 10
122.8721899217786
 20
-73.34745634860847
 30
0.0
 10
122.4720903444473
 20
-73.24024998979819
 30
0.0
 10
122.2346534775785
 20
-72.82899727241367
 30
0.0
 10
122.3418598363853
 20
-72.42889769508203
 30
0.0
 10
122.4490661951923
 20
-72.02879811775169
 30
0.0
 10
122.8603189125801
 20
-71.79136125088257
 30
0.0
 10
123.2604184899107
 20
-71.89856760969029
 30
0.0
  0
SPLINE
  5
63
330
4B
100
AcDbEntity
  8
LAYER_1
 62
   250
100
AcDbSpline
210
0.0
220
0.0
230
1.0
 70
    11
 71
     3
 72
    17
 73
    13
 74
     0
 42
0.0000000001
 43
0.0000000001
 12
1.0
 22
0.0
 32
0.0
 13
1.0
 23
0.0
 33
0.0
 40
0.0
 40
0.0
 40
0.0
 40
0.0
 40
1.0
 40
1.0
 40
1.0
 40
2.0
 40
2.0
 40
2.0
 40
3.0
 40
3.0
 40
3.0
 40
4.0
 40
4.0
 40
4.0
 40
4.0
 10
123.8256661949678
 20
-66.10508503554851
 30
0.0
 10
124.2398797572129
 20
-66.10508503571792
 30
0.0
 10
124.575666194643
 20
-66.4408714734182
 30
0.0
 10
124.5756661944755
 20
-66.85508503566517
 30
0.0
 10
124.5756661943067
 20
-67.26929859791149
 30
0.0
 10
124.2398797566065
 20
-67.60508503534162
 30
0.0
 10
123.8256661943608
 20
-67.60508503517478
 30
0.0
 10
123.4114526321132
 20
-67.60508503500472
 30
0.0
 10
123.0756661946843
 20
-67.26929859730444
 30
0.0
 10
123.0756661948512
 20
-66.85508503505683
 30
0.0
 10
123.075666195018
 20
-66.44087147281115
 30
0.0
 10
123.4114526327215
 20
-66.10508503538166
 30
0.0
 10
123.8256661949678
 20
-66.10508503554851
 30
0.0
  0
SPLINE
  5
64
330
4B
100
AcDbEntity
  8
LAYER_1
 62
   250
100
AcDbSpline
210
0.0
220
0.0
230
1.0
 70
    11
 71
     3
 72
    17
 73
    13
 74
     0
 42
0.0000000001
 43
0.0000000001
 12
1.0
 22
0.0
 32
0.0
 13
1.0
 23
0.0
 33
0.0
 40
0.0
 40
0.0
 40
0.0
 40
0.0
 40
1.0
 40
1.0
 40
1.0
 40
2.0
 40
2.0
 40
2.0
 40
3.0
 40
3.0
 40
3.0
 40
4.0
 40
4.0
 40
4.0
 40
4.0
 10
122.8721899239184
 20
-60.3627137217529
 30
0.0
 10
123.2722895013347
 20
-60.25550736327053
 30
0.0
 10
123.683542218528
 20
-60.4929442304714
 30
0.0
 10
123.7907485770129
 20
-60.89304380788966
 30
0.0
 10
123.897954935496
 20
-61.29314338530664
 30
0.0
 10
123.6605180682945
 20
-61.70439610250058
 30
0.0
 10
123.2604184908781
 20
-61.81160246098487
 30
0.0
 10
122.8603189134592
 20
-61.91880881946788
 30
0.0
 10
122.4490661962672
 20
-61.68137195226637
 30
0.0
 10
122.3418598377819
 20
-61.28127237484811
 30
0.0
 10
122.2346534792967
 20
-60.88117279743113
 30
0.0
 10
122.4720903465014
 20
-60.46992008023719
 30
0.0
 10
122.8721899239184
 20
-60.3627137217529
 30
0.0
  0
SPLINE
  5
65
330
4B
100
AcDbEntity
  8
LAYER_1
 62
   250
100
AcDbSpline
210
0.0
220
0.0
230
1.0
 70
    11
 71
     3
 72
    17
 73
    13
 74
     0
 42
0.0000000001
 43
0.0000000001
 12
1.0
 22
0.0
 32
0.0
 13
1.0
 23
0.0
 33
0.0
 40
0.0
 40
0.0
 40
0.0
 40
0.0
 40
1.0
 40
1.0
 40
1.0
 40
2.0
 40
2.0
 40
2.0
 40
3.0
 40
3.0
 40
3.0
 40
4.0
 40
4.0
 40
4.0
 40
4.0
 10
120.4649675089372
 20
-55.06278678359907
 30
0.0
 10
120.8236869765209
 20
-54.85568000262831
 30
0.0
 10
121.2823797804299
 20
-54.97858636921463
 30
0.0
 10
121.4894865614032
 20
-55.33730583679995
 30
0.0
 10
121.6965933423753
 20
-55.69602530438462
 30
0.0
 10
121.5736869757883
 20
-56.15471810829391
 30
0.0
 10
121.2149675082049
 20
-56.36182488926595
 30
0.0
 10
120.8562480406183
 20
-56.56893167023735
 30
0.0
 10
120.3975552367103
 20
-56.44602530365038
 30
0.0
 10
120.190448455737
 20
-56.08730583606571
 30
0.0
 10
119.9833416747637
 20
-55.72858636848232
 30
0.0
 10
120.1062480413525
 20
-55.26989356457175
 30
0.0
 10
120.4649675089372
 20
-55.06278678359907
 30
0.0
  0
SPLINE
  5
66
330
4B
100
AcDbEntity
  8
LAYER_1
 62
   250
100
AcDbSpline
210
0.0
220
0.0
230
1.0
 70
    11
 71
     3
 72
    17
 73
    13
 74
     0
 42
0.0000000001
 43
0.0000000001
 12
1.0
 22
0.0
 32
0.0
 13
1.0
 23
0.0
 33
0.0
 40
0.0
 40
0.0
 40
0.0
 40
0.0
 40
1.0
 40
1.0
 40
1.0
 40
2.0
 40
2.0
 40
2.0
 40
3.0
 40
3.0
 40
3.0
 40
4.0
 40
4.0
 40
4.0
 40
4.0
 10
116.7680471794723
 20
-50.56648548335824
 30
0.0
 10
117.0609403983213
 20
-50.27359226476117
 30
0.0
 10
117.5358141323864
 20
-50.27359226496299
 30
0.0
 10
117.8287073509861
 20
-50.56648548381321
 30
0.0
 10
118.1216005695844
 20
-50.85937870266248
 30
0.0
 10
118.1216005693829
 20
-51.3342524367286
 30
0.0
 10
117.8287073505343
 20
-51.62714565532632
 30
0.0
 10
117.5358141316831
 20
-51.92003887392404
 30
0.0
 10
117.0609403976183
 20
-51.92003887372255
 30
0.0
 10
116.7680471790186
 20
-51.62714565487264
 30
0.0
 10
116.4751539604196
 20
-51.33425243602466
 30
0.0
 10
116.475153960623
 20
-50.85937870195725
 30
0.0
 10
116.7680471794723
 20
-50.56648548335824
 30
0.0
  0
SPLINE
  5
67
330
4B
100
AcDbEntity
  8
LAYER_1
 62
   250
100
AcDbSpline
210
0.0
220
0.0
230
1.0
 70
    11
 71
     3
 72
    17
 73
    13
 74
     0
 42
0.0000000001
 43
0.0000000001
 12
1.0
 22
0.0
 32
0.0
 13
1.0
 23
0.0
 33
0.0
 40
0.0
 40
0.0
 40
0.0
 40
0.0
 40
1.0
 40
1.0
 40
1.0
 40
2.0
 40
2.0
 40
2.0
 40
3.0
 40
3.0
 40
3.0
 40
4.0
 40
4.0
 40
4.0
 40
4.0
 10
112.0333679465126
 20
-47.18022532413539
 30
0.0
 10
112.240474727792
 20
-46.82150585672943
 30
0.0
 10
112.6991675318059
 20
-46.69859949053294
 30
0.0
 10
113.0578869992141
 20
-46.90570627181268
 30
0.0
 10
113.416606466621
 20
-47.11281305309242
 30
0.0
 10
113.5395128328184
 20
-47.57150585710598
 30
0.0
 10
113.3324060515397
 20
-47.93022532451258
 30
0.0
 10
113.1252992702577
 20
-48.2889447919195
 30
0.0
 10
112.6666064662451
 20
-48.41185115811631
 30
0.0
 10
112.3078869988362
 20
-48.20474437683657
 30
0.0
 10
111.9491675314293
 20
-47.99763759555876
 30
0.0
 10
111.8262611652338
 20
-47.53894479154295
 30
0.0
 10
112.0333679465126
 20
-47.18022532413539
 30
0.0
  0
SPLINE
  5
68
330
4B
100
AcDbEntity
  8
LAYER_1
 62
   250
100
AcDbSpline
210
0.0
220
0.0
230
1.0
 70
    11
 71
     3
 72
    17
 73
    13
 74
     0
 42
0.0000000001
 43
0.0000000001
 12
1.0
 22
0.0
 32
0.0
 13
1.0
 23
0.0
 33
0.0
 40
0.0
 40
0.0
 40
0.0
 40
0.0
 40
1.0
 40
1.0
 40
1.0
 40
2.0
 40
2.0
 40
2.0
 40
3.0
 40
3.0
 40
3.0
 40
4.0
 40
4.0
 40
4.0
 40
4.0
 10
106.5835903753391
 20
-45.13477433970906
 30
0.0
 10
106.690796734166
 20
-44.73467476238449
 30
0.0
 10
107.1020494515615
 20
-44.4972378955327
 30
0.0
 10
107.502149028888
 20
-44.60444425435902
 30
0.0
 10
107.9022486062132
 20
-44.71165061318598
 30
0.0
 10
108.1396854730656
 20
-45.1229033305811
 30
0.0
 10
108.0324791142399
 20
-45.52300290790599
 30
0.0
 10
107.9252727554111
 20
-45.92310248523184
 30
0.0
 10
107.5140200380163
 20
-46.16053935208331
 30
0.0
 10
107.1139204606898
 20
-46.05333299325731
 30
0.0
 10
106.7138208833645
 20
-45.94612663443228
 30
0.0
 10
106.4763840165134
 20
-45.53487391703428
 30
0.0
 10
106.5835903753391
 20
-45.13477433970906
 30
0.0
  0
ENDBLK
  5
4E
330
4B
100
AcDbEntity
  8
0
100
AcDbBlockEnd
  0
BLOCK
  5
6B
330
69
100
AcDbEntity
  8
0
100
AcDbBlockBegin
  2
BLOCK_3
 70
     0
 10
0.0
 20
0.0
 30
0.0
  3
BLOCK_3
  1

  0
SPLINE
  5
6D
330
69
100
AcDbEntity
  8
LAYER_1
 62
   250
100
AcDbSpline
210
0.0
220
0.0
230
1.0
 70
    11
 71
     3
 72
    17
 73
    13
 74
     0
 42
0.0000000001
 43
0.0000000001
 12
1.0
 22
0.0
 32
0.0
 13
1.0
 23
0.0
 33
0.0
 40
0.0
 40
0.0
 40
0.0
 40
0.0
 40
1.0
 40
1.0
 40
1.0
 40
2.0
 40
2.0
 40
2.0
 40
3.0
 40
3.0
 40
3.0
 40
4.0
 40
4.0
 40
4.0
 40
4.0
 10
150.9428127176371
 20
-7.76619329788211
 30
0.0
 10
135.4788556766897
 20
-7.76619329788211
 30
0.0
 10
122.9428206931158
 20
-20.302228281456
 30
0.0
 10
122.9428206931158
 20
-35.76618532240338
 30
0.0
 10
122.9428206931158
 20
-51.23016389519722
 30
0.0
 10
135.4788556766897
 20
-63.76619887877111
 30
0.0
 10
150.9428127176371
 20
-63.76619887877111
 30
0.0
 10
166.4067912904312
 20
-63.76619887877111
 30
0.0
 10
178.9428262740051
 20
-51.23016389519722
 30
0.0
 10
178.9428262740051
 20
-35.76618532240338
 30
0.0
 10
178.9428262740051
 20
-20.302228281456
 30
0.0
 10
166.4067912904312
 20
-7.76619329788211
 30
0.0
 10
150.9428127176371
 20
-7.76619329788211
 30
0.0
  0
SPLINE
  5
6E
330
69
100
AcDbEntity
  8
LAYER_1
 62
   250
100
AcDbSpline
210
0.0
220
0.0
230
1.0
 70
    11
 71
     3
 72
    17
 73
    13
 74
     0
 42
0.0000000001
 43
0.0000000001
 12
1.0
 22
0.0
 32
0.0
 13
1.0
 23
0.0
 33
0.0
 40
0.0
 40
0.0
 40
0.0
 40
0.0
 40
1.0
 40
1.0
 40
1.0
 40
2.0
 40
2.0
 40
2.0
 40
3.0
 40
3.0
 40
3.0
 40
4.0
 40
4.0
 40
4.0
 40
4.0
 10
150.9428127176371
 20
-38.26620498866205
 30
0.0
 10
149.5621045745361
 20
-38.26620498866205
 30
0.0
 10
148.4428145832252
 20
-37.14691499735117
 30
0.0
 10
148.4428145832252
 20
-35.76618532240338
 30
0.0
 10
148.4428145832252
 20
-34.38547717930238
 30
0.0
 10
149.5621045745361
 20
-33.26618718799149
 30
0.0
 10
150.9428127176371
 20
-33.26618718799149
 30
0.0
 10
152.3235423925849
 20
-33.26618718799149
 30
0.0
 10
153.442810852049
 20
-34.38547717930238
 30
0.0
 10
153.442810852049
 20
-35.76618532240338
 30
0.0
 10
153.442810852049
 20
-37.14691499735117
 30
0.0
 10
152.3235423925849
 20
-38.26620498866205
 30
0.0
 10
150.9428127176371
 20
-38.26620498866205
 30
0.0
  0
SPLINE
  5
6F
330
69
100
AcDbEntity
  8
LAYER_1
 62
   250
100
AcDbSpline
210
0.0
220
0.0
230
1.0
 70
    11
 71
     3
 72
    17
 73
    13
 74
     0
 42
0.0000000001
 43
0.0000000001
 12
1.0
 22
0.0
 32
0.0
 13
1.0
 23
0.0
 33
0.0
 40
0.0
 40
0.0
 40
0.0
 40
0.0
 40
1.0
 40
1.0
 40
1.0
 40
2.0
 40
2.0
 40
2.0
 40
3.0
 40
3.0
 40
3.0
 40
4.0
 40
4.0
 40
4.0
 40
4.0
 10
150.1928228108778
 20
-13.48063777460423
 30
0.0
 10
150.1928228109894
 20
-13.06642421235791
 30
0.0
 10
150.5286092486461
 20
-12.73063777488222
 30
0.0
 10
150.9428228108924
 20
-12.73063777499387
 30
0.0
 10
151.3570363731387
 20
-12.73063777510553
 30
0.0
 10
151.6928228106144
 20
-13.06642421276218
 30
0.0
 10
151.6928228105028
 20
-13.4806377750085
 30
0.0
 10
151.6928228103911
 20
-13.89485133725482
 30
0.0
 10
151.3570363727345
 20
-14.23063777473051
 30
0.0
 10
150.9428228104881
 20
-14.23063777461885
 30
0.0
 10
150.5286092482418
 20
-14.2306377745072
 30
0.0
 10
150.1928228107661
 20
-13.89485133685055
 30
0.0
 10
150.1928228108778
 20
-13.48063777460423
 30
0.0
  0
SPLINE
  5
70
330
69
100
AcDbEntity
  8
LAYER_1
 62
   250
100
AcDbSpline
210
0.0
220
0.0
230
1.0
 70
    11
 71
     3
 72
    17
 73
    13
 74
     0
 42
0.0000000001
 43
0.0000000001
 12
1.0
 22
0.0
 32
0.0
 13
1.0
 23
0.0
 33
0.0
 40
0.0
 40
0.0
 40
0.0
 40
0.0
 40
1.0
 40
1.0
 40
1.0
 40
2.0
 40
2.0
 40
2.0
 40
3.0
 40
3.0
 40
3.0
 40
4.0
 40
4.0
 40
4.0
 40
4.0
 10
144.4504514972105
 20
-14.43411404642628
 30
0.0
 10
144.343245138673
 20
-14.03401446902438
 30
0.0
 10
144.5806820058199
 20
-13.62276175179804
 30
0.0
 10
144.9807815832228
 20
-13.51555539325984
 30
0.0
 10
145.380881160625
 20
-13.40834903472133
 30
0.0
 10
145.7921338778517
 20
-13.64578590186893
 30
0.0
 10
145.8993402363899
 20
-14.04588547927115
 30
0.0
 10
146.0065465949281
 20
-14.44598505667402
 30
0.0
 10
145.7691097277805
 20
-14.85723777390004
 30
0.0
 10
145.3690101503776
 20
-14.96444413243856
 30
0.0
 10
144.9689105729754
 20
-15.07165049097708
 30
0.0
 10
144.5576578557487
 20
-14.83421362382947
 30
0.0
 10
144.4504514972105
 20
-14.43411404642628
 30
0.0
  0
SPLINE
  5
71
330
69
100
AcDbEntity
  8
LAYER_1
 62
   250
100
AcDbSpline
210
0.0
220
0.0
230
1.0
 70
    11
 71
     3
 72
    17
 73
    13
 74
     0
 42
0.0000000001
 43
0.0000000001
 12
1.0
 22
0.0
 32
0.0
 13
1.0
 23
0.0
 33
0.0
 40
0.0
 40
0.0
 40
0.0
 40
0.0
 40
1.0
 40
1.0
 40
1.0
 40
2.0
 40
2.0
 40
2.0
 40
3.0
 40
3.0
 40
3.0
 40
4.0
 40
4.0
 40
4.0
 40
4.0
 10
139.1505245593814
 20
-16.84133646212198
 30
0.0
 10
138.9434177783612
 20
-16.48261699456522
 30
0.0
 10
139.0663241448859
 20
-16.02392419063893
 30
0.0
 10
139.425043612443
 20
-15.81681740961748
 30
0.0
 10
139.7837630799988
 20
-15.60971062859667
 30
0.0
 10
140.2424558839261
 20
-15.73261699512267
 30
0.0
 10
140.4495626649469
 20
-16.09133646267847
 30
0.0
 10
140.6566694459677
 20
-16.45005593023523
 30
0.0
 10
140.5337630794417
 20
-16.90874873416152
 30
0.0
 10
140.1750436118852
 20
-17.11585551518297
 30
0.0
 10
139.8163241443295
 20
-17.32296229620442
 30
0.0
 10
139.3576313404022
 20
-17.20005592967842
 30
0.0
 10
139.1505245593814
 20
-16.84133646212198
 30
0.0
  0
SPLINE
  5
72
330
69
100
AcDbEntity
  8
LAYER_1
 62
   250
100
AcDbSpline
210
0.0
220
0.0
230
1.0
 70
    11
 71
     3
 72
    17
 73
    13
 74
     0
 42
0.0000000001
 43
0.0000000001
 12
1.0
 22
0.0
 32
0.0
 13
1.0
 23
0.0
 33
0.0
 40
0.0
 40
0.0
 40
0.0
 40
0.0
 40
1.0
 40
1.0
 40
1.0
 40
2.0
 40
2.0
 40
2.0
 40
3.0
 40
3.0
 40
3.0
 40
4.0
 40
4.0
 40
4.0
 40
4.0
 10
134.6542232596385
 20
-20.538256792192
 30
0.0
 10
134.361330041001
 20
-20.2453635733822
 30
0.0
 10
134.3613300411393
 20
-19.77048983931607
 30
0.0
 10
134.6542232599491
 20
-19.47759662067696
 30
0.0
 10
134.9471164787579
 20
-19.18470340203978
 30
0.0
 10
135.4219902128253
 20
-19.18470340217806
 30
0.0
 10
135.7148834314629
 20
-19.4775966209869
 30
0.0
 10
136.0077766501016
 20
-19.77048983979638
 30
0.0
 10
136.0077766499624
 20
-20.24536357386315
 30
0.0
 10
135.7148834311529
 20
-20.53825679250194
 30
0.0
 10
135.4219902123444
 20
-20.8311500111404
 30
0.0
 10
134.9471164782767
 20
-20.8311500110018
 30
0.0
 10
134.6542232596385
 20
-20.538256792192
 30
0.0
  0
SPLINE
  5
73
330
69
100
AcDbEntity
  8
LAYER_1
 62
   250
100
AcDbSpline
210
0.0
220
0.0
230
1.0
 70
    11
 71
     3
 72
    17
 73
    13
 74
     0
 42
0.0000000001
 43
0.0000000001
 12
1.0
 22
0.0
 32
0.0
 13
1.0
 23
0.0
 33
0.0
 40
0.0
 40
0.0
 40
0.0
 40
0.0
 40
1.0
 40
1.0
 40
1.0
 40
2.0
 40
2.0
 40
2.0
 40
3.0
 40
3.0
 40
3.0
 40
4.0
 40
4.0
 40
4.0
 40
4.0
 10
131.2679631010535
 20
-25.27293602560735
 30
0.0
 10
130.909243633619
 20
-25.06582924437607
 30
0.0
 10
130.7863372673596
 20
-24.60713644037855
 30
0.0
 10
130.9934440485912
 20
-24.24841697294243
 30
0.0
 10
131.2005508298219
 20
-23.88969750550791
 30
0.0
 10
131.6592436338204
 20
-23.7667911392495
 30
0.0
 10
132.0179631012549
 20
-23.97389792048014
 30
0.0
 10
132.3766825686907
 20
-24.18100470171047
 30
0.0
 10
132.4995889349487
 20
-24.63969750570863
 30
0.0
 10
132.2924821537178
 20
-24.99841697314507
 30
0.0
 10
132.0853753724878
 20
-25.35713644058023
 30
0.0
 10
131.6266825684887
 20
-25.48004280683864
 30
0.0
 10
131.2679631010535
 20
-25.27293602560735
 30
0.0
  0
SPLINE
  5
74
330
69
100
AcDbEntity
  8
LAYER_1
 62
   250
100
AcDbSpline
210
0.0
220
0.0
230
1.0
 70
    11
 71
     3
 72
    17
 73
    13
 74
     0
 42
0.0000000001
 43
0.0000000001
 12
1.0
 22
0.0
 32
0.0
 13
1.0
 23
0.0
 33
0.0
 40
0.0
 40
0.0
 40
0.0
 40
0.0
 40
1.0
 40
1.0
 40
1.0
 40
2.0
 40
2.0
 40
2.0
 40
3.0
 40
3.0
 40
3.0
 40
4.0
 40
4.0
 40
4.0
 40
4.0
 10
129.2225121173607
 20
-30.72271359705612
 30
0.0
 10
128.822412540022
 20
-30.61550723828307
 30
0.0
 10
128.5849756731137
 20
-30.20425452091972
 30
0.0
 10
128.6921820318861
 20
-29.80415494357846
 30
0.0
 10
128.7993883906585
 20
-29.40405536623945
 30
0.0
 10
129.2106411080232
 20
-29.16661849933151
 30
0.0
 10
129.6107406853625
 20
-29.27382485810393
 30
0.0
 10
130.0108402627025
 20
-29.38103121687571
 30
0.0
 10
130.2482771296094
 20
-29.79228393424034
 30
0.0
 10
130.141070770838
 20
-30.19238351158128
 30
0.0
 10
130.0338644120665
 20
-30.59248308892093
 30
0.0
 10
129.6226116947006
 20
-30.82991995582854
 30
0.0
 10
129.2225121173607
 20
-30.72271359705612
 30
0.0
  0
SPLINE
  5
75
330
69
100
AcDbEntity
  8
LAYER_1
 62
   250
100
AcDbSpline
210
0.0
220
0.0
230
1.0
 70
    11
 71
     3
 72
    17
 73
    13
 74
     0
 42
0.0000000001
 43
0.0000000001
 12
1.0
 22
0.0
 32
0.0
 13
1.0
 23
0.0
 33
0.0
 40
0.0
 40
0.0
 40
0.0
 40
0.0
 40
1.0
 40
1.0
 40
1.0
 40
2.0
 40
2.0
 40
2.0
 40
3.0
 40
3.0
 40
3.0
 40
4.0
 40
4.0
 40
4.0
 40
4.0
 10
128.6572644128237
 20
-36.51619617124891
 30
0.0
 10
128.243050850579
 20
-36.51619617111704
 30
0.0
 10
127.9072644131177
 20
-36.18040973344692
 30
0.0
 10
127.907264413248
 20
-35.76619617119932
 30
0.0
 10
127.9072644133789
 20
-35.35198260895363
 30
0.0
 10
128.2430508510503
 20
-35.01619617149238
 30
0.0
 10
128.657264413296
 20
-35.01619617162393
 30
0.0
 10
129.0714779755423
 20
-35.01619617175356
 30
0.0
 10
129.4072644130019
 20
-35.35198260942528
 30
0.0
 10
129.4072644128726
 20
-35.76619617167225
 30
0.0
 10
129.4072644127427
 20
-36.18040973391793
 30
0.0
 10
129.0714779750706
 20
-36.51619617137918
 30
0.0
 10
128.6572644128237
 20
-36.51619617124891
 30
0.0
  0
SPLINE
  5
76
330
69
100
AcDbEntity
  8
LAYER_1
 62
   250
100
AcDbSpline
210
0.0
220
0.0
230
1.0
 70
    11
 71
     3
 72
    17
 73
    13
 74
     0
 42
0.0000000001
 43
0.0000000001
 12
1.0
 22
0.0
 32
0.0
 13
1.0
 23
0.0
 33
0.0
 40
0.0
 40
0.0
 40
0.0
 40
0.0
 40
1.0
 40
1.0
 40
1.0
 40
2.0
 40
2.0
 40
2.0
 40
3.0
 40
3.0
 40
3.0
 40
4.0
 40
4.0
 40
4.0
 40
4.0
 10
129.6107406843884
 20
-42.25856748495918
 30
0.0
 10
129.2106411069817
 20
-42.36577384347716
 30
0.0
 10
128.7993883897666
 20
-42.12833697631287
 30
0.0
 10
128.6921820312457
 20
-41.72823739890423
 30
0.0
 10
128.5849756727261
 20
-41.3281378214972
 30
0.0
 10
128.8224125398917
 20
-40.91688510428112
 30
0.0
 10
129.222512117299
 20
-40.80967874576218
 30
0.0
 10
129.6226116947064
 20
-40.70247238724131
 30
0.0
 10
130.0338644119209
 20
-40.93990925440752
 30
0.0
 10
130.1410707704424
 20
-41.34000883181552
 30
0.0
 10
130.2482771289633
 20
-41.74010840922191
 30
0.0
 10
130.0108402617964
 20
-42.15136112643863
 30
0.0
 10
129.6107406843884
 20
-42.25856748495918
 30
0.0
  0
SPLINE
  5
77
330
69
100
AcDbEntity
  8
LAYER_1
 62
   250
100
AcDbSpline
210
0.0
220
0.0
230
1.0
 70
    11
 71
     3
 72
    17
 73
    13
 74
     0
 42
0.0000000001
 43
0.0000000001
 12
1.0
 22
0.0
 32
0.0
 13
1.0
 23
0.0
 33
0.0
 40
0.0
 40
0.0
 40
0.0
 40
0.0
 40
1.0
 40
1.0
 40
1.0
 40
2.0
 40
2.0
 40
2.0
 40
3.0
 40
3.0
 40
3.0
 40
4.0
 40
4.0
 40
4.0
 40
4.0
 10
132.0179630998457
 20
-47.55849442289644
 30
0.0
 10
131.6592436322803
 20
-47.76560120389928
 30
0.0
 10
131.2005508283601
 20
-47.64269483735403
 30
0.0
 10
130.9934440473547
 20
-47.28397536978732
 30
0.0
 10
130.7863372663499
 20
-46.9252559022219
 30
0.0
 10
130.9092436328958
 20
-46.46656309830074
 30
0.0
 10
131.2679631004619
 20
-46.25945631729694
 30
0.0
 10
131.6266825680273
 20
-46.05234953629153
 30
0.0
 10
132.0853753719475
 20
-46.17525590283871
 30
0.0
 10
132.2924821529542
 20
-46.53397537040445
 30
0.0
 10
132.4995889339589
 20
-46.8926948379689
 30
0.0
 10
132.3766825674118
 20
-47.35138764189103
 30
0.0
 10
132.0179630998457
 20
-47.55849442289644
 30
0.0
  0
SPLINE
  5
78
330
69
100
AcDbEntity
  8
LAYER_1
 62
   250
100
AcDbSpline
210
0.0
220
0.0
230
1.0
 70
    11
 71
     3
 72
    17
 73
    13
 74
     0
 42
0.0000000001
 43
0.0000000001
 12
1.0
 22
0.0
 32
0.0
 13
1.0
 23
0.0
 33
0.0
 40
0.0
 40
0.0
 40
0.0
 40
0.0
 40
1.0
 40
1.0
 40
1.0
 40
2.0
 40
2.0
 40
2.0
 40
3.0
 40
3.0
 40
3.0
 40
4.0
 40
4.0
 40
4.0
 40
4.0
 10
135.7148834297142
 20
-52.05479572280486
 30
0.0
 10
135.4219902108913
 20
-52.34768894142888
 30
0.0
 10
134.9471164768258
 20
-52.34768894126847
 30
0.0
 10
134.6542232581998
 20
-52.0547957224455
 30
0.0
 10
134.3613300395752
 20
-51.7619025036232
 30
0.0
 10
134.3613300397343
 20
-51.28702876955642
 30
0.0
 10
134.6542232585572
 20
-50.9941355509324
 30
0.0
 10
134.9471164773802
 20
-50.70124233230708
 30
0.0
 10
135.4219902114457
 20
-50.70124233246815
 30
0.0
 10
135.7148834300729
 20
-50.99413555128982
 30
0.0
 10
136.0077766486976
 20
-51.28702877011149
 30
0.0
 10
136.0077766485372
 20
-51.76190250417955
 30
0.0
 10
135.7148834297142
 20
-52.05479572280486
 30
0.0
  0
SPLINE
  5
79
330
69
100
AcDbEntity
  8
LAYER_1
 62
   250
100
AcDbSpline
210
0.0
220
0.0
230
1.0
 70
    11
 71
     3
 72
    17
 73
    13
 74
     0
 42
0.0000000001
 43
0.0000000001
 12
1.0
 22
0.0
 32
0.0
 13
1.0
 23
0.0
 33
0.0
 40
0.0
 40
0.0
 40
0.0
 40
0.0
 40
1.0
 40
1.0
 40
1.0
 40
2.0
 40
2.0
 40
2.0
 40
3.0
 40
3.0
 40
3.0
 40
4.0
 40
4.0
 40
4.0
 40
4.0
 10
140.4495626629775
 20
-55.44105588160291
 30
0.0
 10
140.2424558817302
 20
-55.79977534902716
 30
0.0
 10
139.7837630777278
 20
-55.92268171526504
 30
0.0
 10
139.4250436103004
 20
-55.7155749340177
 30
0.0
 10
139.0663241428748
 20
-55.50846815277102
 30
0.0
 10
138.9434177766363
 20
-55.0497753487674
 30
0.0
 10
139.1505245578843
 20
-54.69105588134187
 30
0.0
 10
139.3576313391316
 20
-54.3323364139157
 30
0.0
 10
139.816324143134
 20
-54.20943004767975
 30
0.0
 10
140.1750436105621
 20
-54.41653682892515
 30
0.0
 10
140.5337630779876
 20
-54.62364361017119
 30
0.0
 10
140.6566694442248
 20
-55.0823364141761
 30
0.0
 10
140.4495626629775
 20
-55.44105588160291
 30
0.0
  0
SPLINE
  5
7A
330
69
100
AcDbEntity
  8
LAYER_1
 62
   250
100
AcDbSpline
210
0.0
220
0.0
230
1.0
 70
    11
 71
     3
 72
    17
 73
    13
 74
     0
 42
0.0000000001
 43
0.0000000001
 12
1.0
 22
0.0
 32
0.0
 13
1.0
 23
0.0
 33
0.0
 40
0.0
 40
0.0
 40
0.0
 40
0.0
 40
1.0
 40
1.0
 40
1.0
 40
2.0
 40
2.0
 40
2.0
 40
3.0
 40
3.0
 40
3.0
 40
4.0
 40
4.0
 40
4.0
 40
4.0
 10
145.8993402343345
 20
-57.48650686553962
 30
0.0
 10
145.7921338755435
 20
-57.88660644287383
 30
0.0
 10
145.3808811581699
 20
-58.12404330976283
 30
0.0
 10
144.9807815808331
 20
-58.0168369509718
 30
0.0
 10
144.5806820034983
 20
-57.90963059218141
 30
0.0
 10
144.3432451366086
 20
-57.4983778748078
 30
0.0
 10
144.4504514953996
 20
-57.09827829747232
 30
0.0
 10
144.5576578541907
 20
-56.69817872013684
 30
0.0
 10
144.9689105715649
 20
-56.46074185324976
 30
0.0
 10
145.3690101489017
 20
-56.56794821203757
 30
0.0
 10
145.7691097262359
 20
-56.67515457082796
 30
0.0
 10
146.0065465931249
 20
-57.08640728820414
 30
0.0
 10
145.8993402343345
 20
-57.48650686553962
 30
0.0
  0
SPLINE
  5
7B
330
69
100
AcDbEntity
  8
LAYER_1
 62
   250
100
AcDbSpline
210
0.0
220
0.0
230
1.0
 70
    11
 71
     3
 72
    17
 73
    13
 74
     0
 42
0.0000000001
 43
0.0000000001
 12
1.0
 22
0.0
 32
0.0
 13
1.0
 23
0.0
 33
0.0
 40
0.0
 40
0.0
 40
0.0
 40
0.0
 40
1.0
 40
1.0
 40
1.0
 40
2.0
 40
2.0
 40
2.0
 40
3.0
 40
3.0
 40
3.0
 40
4.0
 40
4.0
 40
4.0
 40
4.0
 10
151.6928228085019
 20
-58.05175457033649
 30
0.0
 10
151.6928228083518
 20
-58.46596813258217
 30
0.0
 10
151.3570363706669
 20
-58.80175457002706
 30
0.0
 10
150.942822808418
 20
-58.80175456987818
 30
0.0
 10
150.5286092461724
 20
-58.80175456972867
 30
0.0
 10
150.1928228087268
 20
-58.46596813204378
 30
0.0
 10
150.1928228088767
 20
-58.05175456979683
 30
0.0
 10
150.1928228090265
 20
-57.63754100754986
 30
0.0
 10
150.528609246712
 20
-57.3017545701069
 30
0.0
 10
150.9428228089596
 20
-57.30175457025385
 30
0.0
 10
151.3570363712053
 20
-57.30175457040208
 30
0.0
 10
151.6928228086508
 20
-57.63754100809017
 30
0.0
 10
151.6928228085019
 20
-58.05175457033649
 30
0.0
  0
SPLINE
  5
7C
330
69
100
AcDbEntity
  8
LAYER_1
 62
   250
100
AcDbSpline
210
0.0
220
0.0
230
1.0
 70
    11
 71
     3
 72
    17
 73
    13
 74
     0
 42
0.0000000001
 43
0.0000000001
 12
1.0
 22
0.0
 32
0.0
 13
1.0
 23
0.0
 33
0.0
 40
0.0
 40
0.0
 40
0.0
 40
0.0
 40
1.0
 40
1.0
 40
1.0
 40
2.0
 40
2.0
 40
2.0
 40
3.0
 40
3.0
 40
3.0
 40
4.0
 40
4.0
 40
4.0
 40
4.0
 10
157.4351941222546
 20
-57.09827829902972
 30
0.0
 10
157.5424004807555
 20
-57.49837787644157
 30
0.0
 10
157.3049636135733
 20
-57.90963059364577
 30
0.0
 10
156.9048640361582
 20
-58.01683695214868
 30
0.0
 10
156.5047644587464
 20
-58.12404331064965
 30
0.0
 10
156.0935117415422
 20
-57.88660644346739
 30
0.0
 10
155.9863053830399
 20
-57.48650686605426
 30
0.0
 10
155.8790990245389
 20
-57.08640728864114
 30
0.0
 10
156.1165358917225
 20
-56.67515457143821
 30
0.0
 10
156.5166354691356
 20
-56.56794821293467
 30
0.0
 10
156.9167350465474
 20
-56.46074185443177
 30
0.0
 10
157.3279877637523
 20
-56.69817872161788
 30
0.0
 10
157.4351941222546
 20
-57.09827829902972
 30
0.0
  0
SPLINE
  5
7D
330
69
100
AcDbEntity
  8
LAYER_1
 62
   250
100
AcDbSpline
210
0.0
220
0.0
230
1.0
 70
    11
 71
     3
 72
    17
 73
    13
 74
     0
 42
0.0000000001
 43
0.0000000001
 12
1.0
 22
0.0
 32
0.0
 13
1.0
 23
0.0
 33
0.0
 40
0.0
 40
0.0
 40
0.0
 40
0.0
 40
1.0
 40
1.0
 40
1.0
 40
2.0
 40
2.0
 40
2.0
 40
3.0
 40
3.0
 40
3.0
 40
4.0
 40
4.0
 40
4.0
 40
4.0
 10
162.7351210603006
 20
-54.69105588381048
 30
0.0
 10
162.942227841288
 20
-55.04977535138553
 30
0.0
 10
162.8193214747222
 20
-55.50846815529995
 30
0.0
 10
162.4606020071453
 20
-55.71557493628932
 30
0.0
 10
162.1018825395702
 20
-55.9226817172774
 30
0.0
 10
161.6431897356558
 20
-55.79977535071226
 30
0.0
 10
161.4360829546664
 20
-55.44105588313657
 30
0.0
 10
161.228976173679
 20
-55.08233641556024
 30
0.0
 10
161.3518825402461
 20
-54.62364361164646
 30
0.0
 10
161.7106020078211
 20
-54.41653683065645
 30
0.0
 10
162.0693214753955
 20
-54.20943004966708
 30
0.0
 10
162.5280142793119
 20
-54.33233641623544
 30
0.0
 10
162.7351210603006
 20
-54.69105588381048
 30
0.0
  0
SPLINE
  5
7E
330
69
100
AcDbEntity
  8
LAYER_1
 62
   250
100
AcDbSpline
210
0.0
220
0.0
230
1.0
 70
    11
 71
     3
 72
    17
 73
    13
 74
     0
 42
0.0000000001
 43
0.0000000001
 12
1.0
 22
0.0
 32
0.0
 13
1.0
 23
0.0
 33
0.0
 40
0.0
 40
0.0
 40
0.0
 40
0.0
 40
1.0
 40
1.0
 40
1.0
 40
2.0
 40
2.0
 40
2.0
 40
3.0
 40
3.0
 40
3.0
 40
4.0
 40
4.0
 40
4.0
 40
4.0
 10
167.2314223603752
 20
-50.9941355541441
 30
0.0
 10
167.5243155789857
 20
-51.28702877297989
 30
0.0
 10
167.5243155788061
 20
-51.76190250704538
 30
0.0
 10
167.2314223599684
 20
-52.05479572565785
 30
0.0
 10
166.9385291411319
 20
-52.34768894426969
 30
0.0
 10
166.4636554070665
 20
-52.34768894408937
 30
0.0
 10
166.170762188454
 20
-52.05479572525358
 30
0.0
 10
165.8778689698434
 20
-51.76190250641651
 30
0.0
 10
165.877868970025
 20
-51.28702877235102
 30
0.0
 10
166.1707621888608
 20
-50.99413555373791
 30
0.0
 10
166.4636554076953
 20
-50.70124233512543
 30
0.0
 10
166.9385291417634
 20
-50.70124233530831
 30
0.0
 10
167.2314223603752
 20
-50.9941355541441
 30
0.0
  0
SPLINE
  5
7F
330
69
100
AcDbEntity
  8
LAYER_1
 62
   250
100
AcDbSpline
210
0.0
220
0.0
230
1.0
 70
    11
 71
     3
 72
    17
 73
    13
 74
     0
 42
0.0000000001
 43
0.0000000001
 12
1.0
 22
0.0
 32
0.0
 13
1.0
 23
0.0
 33
0.0
 40
0.0
 40
0.0
 40
0.0
 40
0.0
 40
1.0
 40
1.0
 40
1.0
 40
2.0
 40
2.0
 40
2.0
 40
3.0
 40
3.0
 40
3.0
 40
4.0
 40
4.0
 40
4.0
 40
4.0
 10
170.6176825193857
 20
-46.25945632103227
 30
0.0
 10
170.9764019868009
 20
-46.46656310229628
 30
0.0
 10
171.0993083530189
 20
-46.92525590630375
 30
0.0
 10
170.8922015717543
 20
-47.28397537372222
 30
0.0
 10
170.6850947904909
 20
-47.64269484113812
 30
0.0
 10
170.2264019864828
 20
-47.76560120735547
 30
0.0
 10
169.8676825190662
 20
-47.55849442609274
 30
0.0
 10
169.5089630516497
 20
-47.35138764482841
 30
0.0
 10
169.3860566854336
 20
-46.89269484081998
 30
0.0
 10
169.5931634666964
 20
-46.53397537340214
 30
0.0
 10
169.8002702479585
 20
-46.17525590598528
 30
0.0
 10
170.2589630519691
 20
-46.05234953976954
 30
0.0
 10
170.6176825193857
 20
-46.25945632103227
 30
0.0
  0
SPLINE
  5
80
330
69
100
AcDbEntity
  8
LAYER_1
 62
   250
100
AcDbSpline
210
0.0
220
0.0
230
1.0
 70
    11
 71
     3
 72
    17
 73
    13
 74
     0
 42
0.0000000001
 43
0.0000000001
 12
1.0
 22
0.0
 32
0.0
 13
1.0
 23
0.0
 33
0.0
 40
0.0
 40
0.0
 40
0.0
 40
0.0
 40
1.0
 40
1.0
 40
1.0
 40
2.0
 40
2.0
 40
2.0
 40
3.0
 40
3.0
 40
3.0
 40
4.0
 40
4.0
 40
4.0
 40
4.0
 10
172.6631335035675
 20
-40.80967874976702
 30
0.0
 10
173.0632330808966
 20
-40.91688510857666
 30
0.0
 10
173.3006699477676
 20
-41.32813782596054
 30
0.0
 10
173.1934635889586
 20
-41.72823740329217
 30
0.0
 10
173.0862572301496
 20
-42.12833698062252
 30
0.0
 10
172.6750045127651
 20
-42.36577384749292
 30
0.0
 10
172.2749049354354
 20
-42.2585674886852
 30
0.0
 10
171.8748053581044
 20
-42.15136112987525
 30
0.0
 10
171.6373684912353
 20
-41.7401084124904
 30
0.0
 10
171.7445748500424
 20
-41.34000883515877
 30
0.0
 10
171.8517812088494
 20
-40.93990925782842
 30
0.0
 10
172.2630339262372
 20
-40.70247239095899
 30
0.0
 10
172.6631335035675
 20
-40.80967874976702
 30
0.0
  0
SPLINE
  5
81
330
69
100
AcDbEntity
  8
LAYER_1
 62
   250
100
AcDbSpline
210
0.0
220
0.0
230
1.0
 70
    11
 71
     3
 72
    17
 73
    13
 74
     0
 42
0.0000000001
 43
0.0000000001
 12
1.0
 22
0.0
 32
0.0
 13
1.0
 23
0.0
 33
0.0
 40
0.0
 40
0.0
 40
0.0
 40
0.0
 40
1.0
 40
1.0
 40
1.0
 40
2.0
 40
2.0
 40
2.0
 40
3.0
 40
3.0
 40
3.0
 40
4.0
 40
4.0
 40
4.0
 40
4.0
 10
173.2283812086249
 20
-35.01619617562525
 30
0.0
 10
173.6425947708699
 20
-35.01619617579465
 30
0.0
 10
173.9783812083001
 20
-35.3519826134943
 30
0.0
 10
173.9783812081326
 20
-35.76619617574158
 30
0.0
 10
173.9783812079638
 20
-36.18040973798822
 30
0.0
 10
173.6425947702635
 20
-36.51619617541835
 30
0.0
 10
173.2283812080179
 20
-36.51619617525119
 30
0.0
 10
172.8141676457703
 20
-36.51619617508146
 30
0.0
 10
172.4783812083414
 20
-36.18040973738086
 30
0.0
 10
172.4783812085082
 20
-35.76619617513357
 30
0.0
 10
172.4783812086751
 20
-35.35198261288757
 30
0.0
 10
172.8141676463786
 20
-35.01619617545776
 30
0.0
 10
173.2283812086249
 20
-35.01619617562525
 30
0.0
  0
SPLINE
  5
82
330
69
100
AcDbEntity
  8
LAYER_1
 62
   250
100
AcDbSpline
210
0.0
220
0.0
230
1.0
 70
    11
 71
     3
 72
    17
 73
    13
 74
     0
 42
0.0000000001
 43
0.0000000001
 12
1.0
 22
0.0
 32
0.0
 13
1.0
 23
0.0
 33
0.0
 40
0.0
 40
0.0
 40
0.0
 40
0.0
 40
1.0
 40
1.0
 40
1.0
 40
2.0
 40
2.0
 40
2.0
 40
3.0
 40
3.0
 40
3.0
 40
4.0
 40
4.0
 40
4.0
 40
4.0
 10
172.2749049375755
 20
-29.27382486182963
 30
0.0
 10
172.6750045149918
 20
-29.16661850334727
 30
0.0
 10
173.0862572321851
 20
-29.40405537054814
 30
0.0
 10
173.19346359067
 20
-29.8041549479664
 30
0.0
 10
173.300669949153
 20
-30.2042545253837
 30
0.0
 10
173.0632330819515
 20
-30.61550724257764
 30
0.0
 10
172.6631335045352
 20
-30.72271360106193
 30
0.0
 10
172.2630339271163
 20
-30.82991995954398
 30
0.0
 10
171.8517812099243
 20
-30.59248309234279
 30
0.0
 10
171.7445748514387
 20
-30.19238351492453
 30
0.0
 10
171.6373684929538
 20
-29.79228393750787
 30
0.0
 10
171.8748053601585
 20
-29.38103122031393
 30
0.0
 10
172.2749049375755
 20
-29.27382486182963
 30
0.0
  0
SPLINE
  5
83
330
69
100
AcDbEntity
  8
LAYER_1
 62
   250
100
AcDbSpline
210
0.0
220
0.0
230
1.0
 70
    11
 71
     3
 72
    17
 73
    13
 74
     0
 42
0.0000000001
 43
0.0000000001
 12
1.0
 22
0.0
 32
0.0
 13
1.0
 23
0.0
 33
0.0
 40
0.0
 40
0.0
 40
0.0
 40
0.0
 40
1.0
 40
1.0
 40
1.0
 40
2.0
 40
2.0
 40
2.0
 40
3.0
 40
3.0
 40
3.0
 40
4.0
 40
4.0
 40
4.0
 40
4.0
 10
169.8676825225943
 20
-23.9738979236758
 30
0.0
 10
170.2264019901777
 20
-23.76679114270505
 30
0.0
 10
170.685094794087
 20
-23.88969750929137
 30
0.0
 10
170.8922015750603
 20
-24.24841697687668
 30
0.0
 10
171.0993083560323
 20
-24.60713644446135
 30
0.0
 10
170.9764019894454
 20
-25.06582924837064
 30
0.0
 10
170.617682521862
 20
-25.272936029343
 30
0.0
 10
170.2589630542754
 20
-25.4800428103144
 30
0.0
 10
169.8002702503674
 20
-25.35713644372744
 30
0.0
 10
169.5931634693941
 20
-24.99841697614244
 30
0.0
 10
169.3860566884207
 20
-24.63969750855874
 30
0.0
 10
169.5089630550096
 20
-24.18100470464881
 30
0.0
 10
169.8676825225943
 20
-23.9738979236758
 30
0.0
  0
SPLINE
  5
84
330
69
100
AcDbEntity
  8
LAYER_1
 62
   250
100
AcDbSpline
210
0.0
220
0.0
230
1.0
 70
    11
 71
     3
 72
    17
 73
    13
 74
     0
 42
0.0000000001
 43
0.0000000001
 12
1.0
 22
0.0
 32
0.0
 13
1.0
 23
0.0
 33
0.0
 40
0.0
 40
0.0
 40
0.0
 40
0.0
 40
1.0
 40
1.0
 40
1.0
 40
2.0
 40
2.0
 40
2.0
 40
3.0
 40
3.0
 40
3.0
 40
4.0
 40
4.0
 40
4.0
 40
4.0
 10
166.1707621931294
 20
-19.47759662343498
 30
0.0
 10
166.463655411978
 20
-19.1847034048379
 30
0.0
 10
166.9385291460435
 20
-19.18470340503972
 30
0.0
 10
167.2314223646432
 20
-19.47759662388962
 30
0.0
 10
167.5243155832415
 20
-19.77048984273921
 30
0.0
 10
167.52431558304
 20
-20.24536357680502
 30
0.0
 10
167.2314223641914
 20
-20.53825679540274
 30
0.0
 10
166.9385291453402
 20
-20.83115001400078
 30
0.0
 10
166.4636554112754
 20
-20.83115001379896
 30
0.0
 10
166.1707621926757
 20
-20.53825679494938
 30
0.0
 10
165.8778689740767
 20
-20.2453635761014
 30
0.0
 10
165.8778689742801
 20
-19.77048984203398
 30
0.0
 10
166.1707621931294
 20
-19.47759662343498
 30
0.0
  0
SPLINE
  5
85
330
69
100
AcDbEntity
  8
LAYER_1
 62
   250
100
AcDbSpline
210
0.0
220
0.0
230
1.0
 70
    11
 71
     3
 72
    17
 73
    13
 74
     0
 42
0.0000000001
 43
0.0000000001
 12
1.0
 22
0.0
 32
0.0
 13
1.0
 23
0.0
 33
0.0
 40
0.0
 40
0.0
 40
0.0
 40
0.0
 40
1.0
 40
1.0
 40
1.0
 40
2.0
 40
2.0
 40
2.0
 40
3.0
 40
3.0
 40
3.0
 40
4.0
 40
4.0
 40
4.0
 40
4.0
 10
161.4360829601696
 20
-16.09133646421213
 30
0.0
 10
161.643189741449
 20
-15.73261699680617
 30
0.0
 10
162.101882545463
 20
-15.60971063060968
 30
0.0
 10
162.4606020128712
 20
-15.81681741188942
 30
0.0
 10
162.8193214802781
 20
-16.02392419316915
 30
0.0
 10
162.9422278464755
 20
-16.48261699718271
 30
0.0
 10
162.7351210651968
 20
-16.84133646458931
 30
0.0
 10
162.5280142839148
 20
-17.20005593199624
 30
0.0
 10
162.0693214799022
 20
-17.32296229819304
 30
0.0
 10
161.7106020124933
 20
-17.11585551691363
 30
0.0
 10
161.3518825450864
 20
-16.9087487356355
 30
0.0
 10
161.2289761788909
 20
-16.45005593161969
 30
0.0
 10
161.4360829601696
 20
-16.09133646421213
 30
0.0
  0
SPLINE
  5
86
330
69
100
AcDbEntity
  8
LAYER_1
 62
   250
100
AcDbSpline
210
0.0
220
0.0
230
1.0
 70
    11
 71
     3
 72
    17
 73
    13
 74
     0
 42
0.0000000001
 43
0.0000000001
 12
1.0
 22
0.0
 32
0.0
 13
1.0
 23
0.0
 33
0.0
 40
0.0
 40
0.0
 40
0.0
 40
0.0
 40
1.0
 40
1.0
 40
1.0
 40
2.0
 40
2.0
 40
2.0
 40
3.0
 40
3.0
 40
3.0
 40
4.0
 40
4.0
 40
4.0
 40
4.0
 10
155.9863053889962
 20
-14.0458854797858
 30
0.0
 10
156.0935117478231
 20
-13.64578590246122
 30
0.0
 10
156.5047644652186
 20
-13.40834903560944
 30
0.0
 10
156.9048640425451
 20
-13.51555539443608
 30
0.0
 10
157.3049636198703
 20
-13.62276175326272
 30
0.0
 10
157.5424004867227
 20
-14.03401447065783
 30
0.0
 10
157.435194127897
 20
-14.43411404798305
 30
0.0
 10
157.3279877690681
 20
-14.83421362530858
 30
0.0
 10
156.9167350516734
 20
-15.07165049216005
 30
0.0
 10
156.5166354743469
 20
-14.96444413333405
 30
0.0
 10
156.1165358970216
 20
-14.85723777450933
 30
0.0
 10
155.8790990301705
 20
-14.44598505711133
 30
0.0
 10
155.9863053889962
 20
-14.0458854797858
 30
0.0
  0
ENDBLK
  5
6C
330
69
100
AcDbEntity
  8
0
100
AcDbBlockEnd
  0
BLOCK
  5
89
330
87
100
AcDbEntity
  8
0
100
AcDbBlockBegin
  2
BLOCK_4
 70
     0
 10
0.0
 20
0.0
 30
0.0
  3
BLOCK_4
  1

  0
SPLINE
  5
8B
330
87
100
AcDbEntity
  8
LAYER_1
 62
   250
100
AcDbSpline
210
0.0
220
0.0
230
1.0
 70
    11
 71
     3
 72
    17
 73
    13
 74
     0
 42
0.0000000001
 43
0.0000000001
 12
1.0
 22
0.0
 32
0.0
 13
1.0
 23
0.0
 33
0.0
 40
0.0
 40
0.0
 40
0.0
 40
0.0
 40
1.0
 40
1.0
 40
1.0
 40
2.0
 40
2.0
 40
2.0
 40
3.0
 40
3.0
 40
3.0
 40
4.0
 40
4.0
 40
4.0
 40
4.0
 10
200.326308326285
 20
-39.10285643619874
 30
0.0
 10
184.8623512853377
 20
-39.10285643619874
 30
0.0
 10
172.3263163017638
 20
-51.63889141977295
 30
0.0
 10
172.3263163017638
 20
-67.10284846072034
 30
0.0
 10
172.3263163017638
 20
-82.5668270335145
 30
0.0
 10
184.8623512853377
 20
-95.10286201708838
 30
0.0
 10
200.326308326285
 20
-95.10286201708838
 30
0.0
 10
215.7902868990792
 20
-95.10286201708838
 30
0.0
 10
228.3263218826531
 20
-82.5668270335145
 30
0.0
 10
228.3263218826531
 20
-67.10284846072034
 30
0.0
 10
228.3263218826531
 20
-51.63889141977295
 30
0.0
 10
215.7902868990792
 20
-39.10285643619874
 30
0.0
 10
200.326308326285
 20
-39.10285643619874
 30
0.0
  0
SPLINE
  5
8C
330
87
100
AcDbEntity
  8
LAYER_1
 62
   250
100
AcDbSpline
210
0.0
220
0.0
230
1.0
 70
    11
 71
     3
 72
    17
 73
    13
 74
     0
 42
0.0000000001
 43
0.0000000001
 12
1.0
 22
0.0
 32
0.0
 13
1.0
 23
0.0
 33
0.0
 40
0.0
 40
0.0
 40
0.0
 40
0.0
 40
1.0
 40
1.0
 40
1.0
 40
2.0
 40
2.0
 40
2.0
 40
3.0
 40
3.0
 40
3.0
 40
4.0
 40
4.0
 40
4.0
 40
4.0
 10
200.326308326285
 20
-69.602868126979
 30
0.0
 10
198.945600183184
 20
-69.602868126979
 30
0.0
 10
197.8263101918731
 20
-68.48357813566813
 30
0.0
 10
197.8263101918731
 20
-67.10284846072034
 30
0.0
 10
197.8263101918731
 20
-65.72214031761933
 30
0.0
 10
198.945600183184
 20
-64.60285032630844
 30
0.0
 10
200.326308326285
 20
-64.60285032630844
 30
0.0
 10
201.7070380012328
 20
-64.60285032630844
 30
0.0
 10
202.8263064606969
 20
-65.72214031761933
 30
0.0
 10
202.8263064606969
 20
-67.10284846072034
 30
0.0
 10
202.8263064606969
 20
-68.48357813566813
 30
0.0
 10
201.7070380012328
 20
-69.602868126979
 30
0.0
 10
200.326308326285
 20
-69.602868126979
 30
0.0
  0
SPLINE
  5
8D
330
87
100
AcDbEntity
  8
LAYER_1
 62
   250
100
AcDbSpline
210
0.0
220
0.0
230
1.0
 70
    11
 71
     3
 72
    17
 73
    13
 74
     0
 42
0.0000000001
 43
0.0000000001
 12
1.0
 22
0.0
 32
0.0
 13
1.0
 23
0.0
 33
0.0
 40
0.0
 40
0.0
 40
0.0
 40
0.0
 40
1.0
 40
1.0
 40
1.0
 40
2.0
 40
2.0
 40
2.0
 40
3.0
 40
3.0
 40
3.0
 40
4.0
 40
4.0
 40
4.0
 40
4.0
 10
199.5763184195257
 20
-44.81730091292086
 30
0.0
 10
199.5763184196374
 20
-44.40308735067454
 30
0.0
 10
199.9121048572941
 20
-44.06730091319885
 30
0.0
 10
200.3263184195404
 20
-44.0673009133105
 30
0.0
 10
200.7405319817867
 20
-44.06730091342216
 30
0.0
 10
201.0763184192624
 20
-44.40308735107881
 30
0.0
 10
201.0763184191507
 20
-44.81730091332513
 30
0.0
 10
201.0763184190391
 20
-45.23151447557145
 30
0.0
 10
200.7405319813824
 20
-45.56730091304714
 30
0.0
 10
200.3263184191361
 20
-45.56730091293581
 30
0.0
 10
199.9121048568898
 20
-45.56730091282383
 30
0.0
 10
199.5763184194141
 20
-45.23151447516718
 30
0.0
 10
199.5763184195257
 20
-44.81730091292086
 30
0.0
  0
SPLINE
  5
8E
330
87
100
AcDbEntity
  8
LAYER_1
 62
   250
100
AcDbSpline
210
0.0
220
0.0
230
1.0
 70
    11
 71
     3
 72
    17
 73
    13
 74
     0
 42
0.0000000001
 43
0.0000000001
 12
1.0
 22
0.0
 32
0.0
 13
1.0
 23
0.0
 33
0.0
 40
0.0
 40
0.0
 40
0.0
 40
0.0
 40
1.0
 40
1.0
 40
1.0
 40
2.0
 40
2.0
 40
2.0
 40
3.0
 40
3.0
 40
3.0
 40
4.0
 40
4.0
 40
4.0
 40
4.0
 10
193.8339471058585
 20
-45.77077718474324
 30
0.0
 10
193.7267407473209
 20
-45.3706776073407
 30
0.0
 10
193.9641776144679
 20
-44.95942489011467
 30
0.0
 10
194.3642771918707
 20
-44.85221853157648
 30
0.0
 10
194.764376769273
 20
-44.74501217303796
 30
0.0
 10
195.1756294864996
 20
-44.98244904018556
 30
0.0
 10
195.2828358450378
 20
-45.38254861758779
 30
0.0
 10
195.390042203576
 20
-45.78264819499032
 30
0.0
 10
195.1526053364284
 20
-46.19390091221667
 30
0.0
 10
194.7525057590256
 20
-46.30110727075519
 30
0.0
 10
194.3524061816233
 20
-46.40831362929371
 30
0.0
 10
193.9411534643967
 20
-46.1708767621461
 30
0.0
 10
193.8339471058585
 20
-45.77077718474324
 30
0.0
  0
SPLINE
  5
8F
330
87
100
AcDbEntity
  8
LAYER_1
 62
   250
100
AcDbSpline
210
0.0
220
0.0
230
1.0
 70
    11
 71
     3
 72
    17
 73
    13
 74
     0
 42
0.0000000001
 43
0.0000000001
 12
1.0
 22
0.0
 32
0.0
 13
1.0
 23
0.0
 33
0.0
 40
0.0
 40
0.0
 40
0.0
 40
0.0
 40
1.0
 40
1.0
 40
1.0
 40
2.0
 40
2.0
 40
2.0
 40
3.0
 40
3.0
 40
3.0
 40
4.0
 40
4.0
 40
4.0
 40
4.0
 10
188.5340201680293
 20
-48.17799960043861
 30
0.0
 10
188.3269133870092
 20
-47.81928013288153
 30
0.0
 10
188.4498197535339
 20
-47.36058732895556
 30
0.0
 10
188.808539221091
 20
-47.15348054793443
 30
0.0
 10
189.1672586886468
 20
-46.9463737669133
 30
0.0
 10
189.625951492574
 20
-47.0692801334393
 30
0.0
 10
189.8330582735948
 20
-47.4279996009951
 30
0.0
 10
190.0401650546156
 20
-47.78671906855185
 30
0.0
 10
189.9172586880896
 20
-48.24541187247815
 30
0.0
 10
189.5585392205332
 20
-48.4525186534996
 30
0.0
 10
189.1998197529774
 20
-48.65962543452105
 30
0.0
 10
188.7411269490501
 20
-48.53671906799537
 30
0.0
 10
188.5340201680293
 20
-48.17799960043861
 30
0.0
  0
SPLINE
  5
90
330
87
100
AcDbEntity
  8
LAYER_1
 62
   250
100
AcDbSpline
210
0.0
220
0.0
230
1.0
 70
    11
 71
     3
 72
    17
 73
    13
 74
     0
 42
0.0000000001
 43
0.0000000001
 12
1.0
 22
0.0
 32
0.0
 13
1.0
 23
0.0
 33
0.0
 40
0.0
 40
0.0
 40
0.0
 40
0.0
 40
1.0
 40
1.0
 40
1.0
 40
2.0
 40
2.0
 40
2.0
 40
3.0
 40
3.0
 40
3.0
 40
4.0
 40
4.0
 40
4.0
 40
4.0
 10
184.0377188682865
 20
-51.87491993050863
 30
0.0
 10
183.744825649649
 20
-51.58202671169915
 30
0.0
 10
183.7448256497869
 20
-51.10715297763237
 30
0.0
 10
184.0377188685971
 20
-50.81425975899359
 30
0.0
 10
184.3306120874059
 20
-50.52136654035608
 30
0.0
 10
184.8054858214733
 20
-50.52136654049469
 30
0.0
 10
185.0983790401108
 20
-50.81425975930353
 30
0.0
 10
185.3912722587496
 20
-51.10715297811365
 30
0.0
 10
185.3912722586103
 20
-51.58202671217978
 30
0.0
 10
185.0983790398009
 20
-51.87491993081857
 30
0.0
 10
184.805485820992
 20
-52.16781314945671
 30
0.0
 10
184.3306120869246
 20
-52.16781314931811
 30
0.0
 10
184.0377188682865
 20
-51.87491993050863
 30
0.0
  0
SPLINE
  5
91
330
87
100
AcDbEntity
  8
LAYER_1
 62
   250
100
AcDbSpline
210
0.0
220
0.0
230
1.0
 70
    11
 71
     3
 72
    17
 73
    13
 74
     0
 42
0.0000000001
 43
0.0000000001
 12
1.0
 22
0.0
 32
0.0
 13
1.0
 23
0.0
 33
0.0
 40
0.0
 40
0.0
 40
0.0
 40
0.0
 40
1.0
 40
1.0
 40
1.0
 40
2.0
 40
2.0
 40
2.0
 40
3.0
 40
3.0
 40
3.0
 40
4.0
 40
4.0
 40
4.0
 40
4.0
 10
180.6514587097015
 20
-56.60959916392398
 30
0.0
 10
180.2927392422669
 20
-56.4024923826927
 30
0.0
 10
180.1698328760079
 20
-55.9437995786955
 30
0.0
 10
180.3769396572392
 20
-55.5850801112597
 30
0.0
 10
180.5840464384698
 20
-55.22636064382518
 30
0.0
 10
181.0427392424683
 20
-55.10345427756613
 30
0.0
 10
181.4014587099028
 20
-55.31056105879677
 30
0.0
 10
181.7601781773386
 20
-55.51766784002742
 30
0.0
 10
181.8830845435964
 20
-55.97636064402526
 30
0.0
 10
181.6759777623658
 20
-56.3350801114617
 30
0.0
 10
181.4688709811358
 20
-56.69379957889686
 30
0.0
 10
181.0101781771366
 20
-56.81670594515591
 30
0.0
 10
180.6514587097015
 20
-56.60959916392398
 30
0.0
  0
SPLINE
  5
92
330
87
100
AcDbEntity
  8
LAYER_1
 62
   250
100
AcDbSpline
210
0.0
220
0.0
230
1.0
 70
    11
 71
     3
 72
    17
 73
    13
 74
     0
 42
0.0000000001
 43
0.0000000001
 12
1.0
 22
0.0
 32
0.0
 13
1.0
 23
0.0
 33
0.0
 40
0.0
 40
0.0
 40
0.0
 40
0.0
 40
1.0
 40
1.0
 40
1.0
 40
2.0
 40
2.0
 40
2.0
 40
3.0
 40
3.0
 40
3.0
 40
4.0
 40
4.0
 40
4.0
 40
4.0
 10
178.6060077260086
 20
-62.05937673537276
 30
0.0
 10
178.2059081486699
 20
-61.9521703765997
 30
0.0
 10
177.9684712817617
 20
-61.54091765923635
 30
0.0
 10
178.0756776405341
 20
-61.14081808189509
 30
0.0
 10
178.1828839993065
 20
-60.7407185045564
 30
0.0
 10
178.5941367166711
 20
-60.50328163764814
 30
0.0
 10
178.9942362940104
 20
-60.61048799642056
 30
0.0
 10
179.3943358713504
 20
-60.71769435519234
 30
0.0
 10
179.6317727382574
 20
-61.12894707255697
 30
0.0
 10
179.5245663794856
 20
-61.52904664989823
 30
0.0
 10
179.4173600207145
 20
-61.92914622723756
 30
0.0
 10
179.0061073033486
 20
-62.16658309414517
 30
0.0
 10
178.6060077260086
 20
-62.05937673537276
 30
0.0
  0
SPLINE
  5
93
330
87
100
AcDbEntity
  8
LAYER_1
 62
   250
100
AcDbSpline
210
0.0
220
0.0
230
1.0
 70
    11
 71
     3
 72
    17
 73
    13
 74
     0
 42
0.0000000001
 43
0.0000000001
 12
1.0
 22
0.0
 32
0.0
 13
1.0
 23
0.0
 33
0.0
 40
0.0
 40
0.0
 40
0.0
 40
0.0
 40
1.0
 40
1.0
 40
1.0
 40
2.0
 40
2.0
 40
2.0
 40
3.0
 40
3.0
 40
3.0
 40
4.0
 40
4.0
 40
4.0
 40
4.0
 10
178.0407600214716
 20
-67.85285930956522
 30
0.0
 10
177.6265464592266
 20
-67.85285930943367
 30
0.0
 10
177.2907600217657
 20
-67.51707287176355
 30
0.0
 10
177.2907600218959
 20
-67.10285930951531
 30
0.0
 10
177.2907600220268
 20
-66.68864574726963
 30
0.0
 10
177.6265464596982
 20
-66.35285930980933
 30
0.0
 10
178.0407600219439
 20
-66.35285930994024
 30
0.0
 10
178.4549735841902
 20
-66.35285931006986
 30
0.0
 10
178.7907600216499
 20
-66.68864574774192
 30
0.0
 10
178.7907600215202
 20
-67.10285930998887
 30
0.0
 10
178.7907600213906
 20
-67.51707287223455
 30
0.0
 10
178.4549735837186
 20
-67.85285930969613
 30
0.0
 10
178.0407600214716
 20
-67.85285930956522
 30
0.0
  0
SPLINE
  5
94
330
87
100
AcDbEntity
  8
LAYER_1
 62
   250
100
AcDbSpline
210
0.0
220
0.0
230
1.0
 70
    11
 71
     3
 72
    17
 73
    13
 74
     0
 42
0.0000000001
 43
0.0000000001
 12
1.0
 22
0.0
 32
0.0
 13
1.0
 23
0.0
 33
0.0
 40
0.0
 40
0.0
 40
0.0
 40
0.0
 40
1.0
 40
1.0
 40
1.0
 40
2.0
 40
2.0
 40
2.0
 40
3.0
 40
3.0
 40
3.0
 40
4.0
 40
4.0
 40
4.0
 40
4.0
 10
178.9942362930364
 20
-73.59523062327548
 30
0.0
 10
178.5941367156296
 20
-73.7024369817938
 30
0.0
 10
178.1828839984145
 20
-73.4650001146295
 30
0.0
 10
178.0756776398937
 20
-73.06490053722086
 30
0.0
 10
177.9684712813741
 20
-72.6648009598135
 30
0.0
 10
178.2059081485396
 20
-72.25354824259776
 30
0.0
 10
178.606007725947
 20
-72.14634188407945
 30
0.0
 10
179.0061073033544
 20
-72.03913552555794
 30
0.0
 10
179.4173600205688
 20
-72.27657239272415
 30
0.0
 10
179.5245663790903
 20
-72.67667197013215
 30
0.0
 10
179.6317727376112
 20
-73.07677154753885
 30
0.0
 10
179.3943358704443
 20
-73.48802426475525
 30
0.0
 10
178.9942362930364
 20
-73.59523062327548
 30
0.0
  0
SPLINE
  5
95
330
87
100
AcDbEntity
  8
LAYER_1
 62
   250
100
AcDbSpline
210
0.0
220
0.0
230
1.0
 70
    11
 71
     3
 72
    17
 73
    13
 74
     0
 42
0.0000000001
 43
0.0000000001
 12
1.0
 22
0.0
 32
0.0
 13
1.0
 23
0.0
 33
0.0
 40
0.0
 40
0.0
 40
0.0
 40
0.0
 40
1.0
 40
1.0
 40
1.0
 40
2.0
 40
2.0
 40
2.0
 40
3.0
 40
3.0
 40
3.0
 40
4.0
 40
4.0
 40
4.0
 40
4.0
 10
181.4014587084937
 20
-78.89515756121307
 30
0.0
 10
181.0427392409282
 20
-79.1022643422159
 30
0.0
 10
180.584046437008
 20
-78.97935797567065
 30
0.0
 10
180.3769396560026
 20
-78.62063850810395
 30
0.0
 10
180.1698328749979
 20
-78.26191904053853
 30
0.0
 10
180.2927392415438
 20
-77.80322623661705
 30
0.0
 10
180.6514587091098
 20
-77.59611945561358
 30
0.0
 10
181.0101781766753
 20
-77.38901267460815
 30
0.0
 10
181.4688709805954
 20
-77.51191904115534
 30
0.0
 10
181.6759777616021
 20
-77.87063850872076
 30
0.0
 10
181.8830845426069
 20
-78.22935797628554
 30
0.0
 10
181.7601781760597
 20
-78.68805078020766
 30
0.0
 10
181.4014587084937
 20
-78.89515756121307
 30
0.0
  0
SPLINE
  5
96
330
87
100
AcDbEntity
  8
LAYER_1
 62
   250
100
AcDbSpline
210
0.0
220
0.0
230
1.0
 70
    11
 71
     3
 72
    17
 73
    13
 74
     0
 42
0.0000000001
 43
0.0000000001
 12
1.0
 22
0.0
 32
0.0
 13
1.0
 23
0.0
 33
0.0
 40
0.0
 40
0.0
 40
0.0
 40
0.0
 40
1.0
 40
1.0
 40
1.0
 40
2.0
 40
2.0
 40
2.0
 40
3.0
 40
3.0
 40
3.0
 40
4.0
 40
4.0
 40
4.0
 40
4.0
 10
185.0983790383622
 20
-83.39145886112149
 30
0.0
 10
184.8054858195392
 20
-83.68435207974488
 30
0.0
 10
184.3306120854737
 20
-83.68435207958574
 30
0.0
 10
184.0377188668478
 20
-83.3914588607615
 30
0.0
 10
183.7448256482231
 20
-83.09856564193983
 30
0.0
 10
183.7448256483823
 20
-82.62369190787305
 30
0.0
 10
184.0377188672052
 20
-82.33079868924902
 30
0.0
 10
184.3306120860282
 20
-82.03790547062371
 30
0.0
 10
184.8054858200937
 20
-82.03790547078414
 30
0.0
 10
185.0983790387209
 20
-82.3307986896071
 30
0.0
 10
185.3912722573455
 20
-82.62369190842813
 30
0.0
 10
185.3912722571851
 20
-83.09856564249554
 30
0.0
 10
185.0983790383622
 20
-83.39145886112149
 30
0.0
  0
SPLINE
  5
97
330
87
100
AcDbEntity
  8
LAYER_1
 62
   250
100
AcDbSpline
210
0.0
220
0.0
230
1.0
 70
    11
 71
     3
 72
    17
 73
    13
 74
     0
 42
0.0000000001
 43
0.0000000001
 12
1.0
 22
0.0
 32
0.0
 13
1.0
 23
0.0
 33
0.0
 40
0.0
 40
0.0
 40
0.0
 40
0.0
 40
1.0
 40
1.0
 40
1.0
 40
2.0
 40
2.0
 40
2.0
 40
3.0
 40
3.0
 40
3.0
 40
4.0
 40
4.0
 40
4.0
 40
4.0
 10
189.8330582716254
 20
-86.77771901991889
 30
0.0
 10
189.6259514903781
 20
-87.13643848734378
 30
0.0
 10
189.1672586863758
 20
-87.25934485358167
 30
0.0
 10
188.8085392189483
 20
-87.0522380723337
 30
0.0
 10
188.4498197515228
 20
-86.845131291087
 30
0.0
 10
188.3269133852843
 20
-86.38643848708404
 30
0.0
 10
188.5340201665323
 20
-86.0277190196585
 30
0.0
 10
188.7411269477796
 20
-85.66899955223234
 30
0.0
 10
189.1998197517819
 20
-85.54609318599637
 30
0.0
 10
189.55853921921
 20
-85.75319996724178
 30
0.0
 10
189.9172586866355
 20
-85.96030674848782
 30
0.0
 10
190.0401650528728
 20
-86.41899955249272
 30
0.0
 10
189.8330582716254
 20
-86.77771901991889
 30
0.0
  0
SPLINE
  5
98
330
87
100
AcDbEntity
  8
LAYER_1
 62
   250
100
AcDbSpline
210
0.0
220
0.0
230
1.0
 70
    11
 71
     3
 72
    17
 73
    13
 74
     0
 42
0.0000000001
 43
0.0000000001
 12
1.0
 22
0.0
 32
0.0
 13
1.0
 23
0.0
 33
0.0
 40
0.0
 40
0.0
 40
0.0
 40
0.0
 40
1.0
 40
1.0
 40
1.0
 40
2.0
 40
2.0
 40
2.0
 40
3.0
 40
3.0
 40
3.0
 40
4.0
 40
4.0
 40
4.0
 40
4.0
 10
195.2828358429825
 20
-88.82317000385625
 30
0.0
 10
195.1756294841914
 20
-89.22326958119045
 30
0.0
 10
194.7643767668178
 20
-89.46070644807946
 30
0.0
 10
194.364277189481
 20
-89.35350008928843
 30
0.0
 10
193.9641776121462
 20
-89.24629373049869
 30
0.0
 10
193.7267407452566
 20
-88.83504101312379
 30
0.0
 10
193.8339471040476
 20
-88.43494143578894
 30
0.0
 10
193.9411534628386
 20
-88.03484185845346
 30
0.0
 10
194.3524061802129
 20
-87.79740499156638
 30
0.0
 10
194.7525057575496
 20
-87.90461135035484
 30
0.0
 10
195.1526053348838
 20
-88.01181770914394
 30
0.0
 10
195.3900422017728
 20
-88.42307042652077
 30
0.0
 10
195.2828358429825
 20
-88.82317000385625
 30
0.0
  0
SPLINE
  5
99
330
87
100
AcDbEntity
  8
LAYER_1
 62
   250
100
AcDbSpline
210
0.0
220
0.0
230
1.0
 70
    11
 71
     3
 72
    17
 73
    13
 74
     0
 42
0.0000000001
 43
0.0000000001
 12
1.0
 22
0.0
 32
0.0
 13
1.0
 23
0.0
 33
0.0
 40
0.0
 40
0.0
 40
0.0
 40
0.0
 40
1.0
 40
1.0
 40
1.0
 40
2.0
 40
2.0
 40
2.0
 40
3.0
 40
3.0
 40
3.0
 40
4.0
 40
4.0
 40
4.0
 40
4.0
 10
201.0763184171499
 20
-89.38841770865312
 30
0.0
 10
201.0763184169998
 20
-89.8026312708988
 30
0.0
 10
200.7405319793149
 20
-90.13841770834433
 30
0.0
 10
200.326318417066
 20
-90.13841770819482
 30
0.0
 10
199.9121048548203
 20
-90.1384177080453
 30
0.0
 10
199.5763184173748
 20
-89.80263127036042
 30
0.0
 10
199.5763184175243
 20
-89.38841770811345
 30
0.0
 10
199.5763184176744
 20
-88.9742041458665
 30
0.0
 10
199.91210485536
 20
-88.63841770842289
 30
0.0
 10
200.3263184176076
 20
-88.63841770857047
 30
0.0
 10
200.7405319798532
 20
-88.6384177087187
 30
0.0
 10
201.0763184172988
 20
-88.9742041464068
 30
0.0
 10
201.0763184171499
 20
-89.38841770865312
 30
0.0
  0
SPLINE
  5
9A
330
87
100
AcDbEntity
  8
LAYER_1
 62
   250
100
AcDbSpline
210
0.0
220
0.0
230
1.0
 70
    11
 71
     3
 72
    17
 73
    13
 74
     0
 42
0.0000000001
 43
0.0000000001
 12
1.0
 22
0.0
 32
0.0
 13
1.0
 23
0.0
 33
0.0
 40
0.0
 40
0.0
 40
0.0
 40
0.0
 40
1.0
 40
1.0
 40
1.0
 40
2.0
 40
2.0
 40
2.0
 40
3.0
 40
3.0
 40
3.0
 40
4.0
 40
4.0
 40
4.0
 40
4.0
 10
206.8186897309025
 20
-88.43494143734635
 30
0.0
 10
206.9258960894035
 20
-88.8350410147582
 30
0.0
 10
206.6884592222212
 20
-89.24629373196241
 30
0.0
 10
206.2883596448062
 20
-89.35350009046466
 30
0.0
 10
205.8882600673943
 20
-89.46070644896629
 30
0.0
 10
205.4770073501901
 20
-89.22326958178402
 30
0.0
 10
205.3698009916879
 20
-88.8231700043709
 30
0.0
 10
205.2625946331869
 20
-88.42307042695776
 30
0.0
 10
205.5000315003704
 20
-88.01181770975485
 30
0.0
 10
205.9001310777836
 20
-87.90461135125065
 30
0.0
 10
206.3002306551954
 20
-87.79740499274776
 30
0.0
 10
206.7114833724003
 20
-88.03484185993386
 30
0.0
 10
206.8186897309025
 20
-88.43494143734635
 30
0.0
  0
SPLINE
  5
9B
330
87
100
AcDbEntity
  8
LAYER_1
 62
   250
100
AcDbSpline
210
0.0
220
0.0
230
1.0
 70
    11
 71
     3
 72
    17
 73
    13
 74
     0
 42
0.0000000001
 43
0.0000000001
 12
1.0
 22
0.0
 32
0.0
 13
1.0
 23
0.0
 33
0.0
 40
0.0
 40
0.0
 40
0.0
 40
0.0
 40
1.0
 40
1.0
 40
1.0
 40
2.0
 40
2.0
 40
2.0
 40
3.0
 40
3.0
 40
3.0
 40
4.0
 40
4.0
 40
4.0
 40
4.0
 10
212.1186166689485
 20
-86.02771902212712
 30
0.0
 10
212.325723449936
 20
-86.38643848970216
 30
0.0
 10
212.2028170833702
 20
-86.84513129361659
 30
0.0
 10
211.8440976157932
 20
-87.05223807460659
 30
0.0
 10
211.4853781482182
 20
-87.25934485559404
 30
0.0
 10
211.0266853443038
 20
-87.13643848902825
 30
0.0
 10
210.8195785633144
 20
-86.7777190214532
 30
0.0
 10
210.612471782327
 20
-86.41899955387687
 30
0.0
 10
210.735378148894
 20
-85.96030674996373
 30
0.0
 10
211.0940976164691
 20
-85.75319996897308
 30
0.0
 10
211.4528170840435
 20
-85.54609318798371
 30
0.0
 10
211.9115098879598
 20
-85.66899955455207
 30
0.0
 10
212.1186166689485
 20
-86.02771902212712
 30
0.0
  0
SPLINE
  5
9C
330
87
100
AcDbEntity
  8
LAYER_1
 62
   250
100
AcDbSpline
210
0.0
220
0.0
230
1.0
 70
    11
 71
     3
 72
    17
 73
    13
 74
     0
 42
0.0000000001
 43
0.0000000001
 12
1.0
 22
0.0
 32
0.0
 13
1.0
 23
0.0
 33
0.0
 40
0.0
 40
0.0
 40
0.0
 40
0.0
 40
1.0
 40
1.0
 40
1.0
 40
2.0
 40
2.0
 40
2.0
 40
3.0
 40
3.0
 40
3.0
 40
4.0
 40
4.0
 40
4.0
 40
4.0
 10
216.6149179690232
 20
-82.33079869246009
 30
0.0
 10
216.9078111876337
 20
-82.62369191129652
 30
0.0
 10
216.9078111874541
 20
-83.098565645362
 30
0.0
 10
216.6149179686163
 20
-83.39145886397513
 30
0.0
 10
216.3220247497799
 20
-83.68435208258632
 30
0.0
 10
215.8471510157144
 20
-83.68435208240665
 30
0.0
 10
215.5542577971019
 20
-83.39145886357021
 30
0.0
 10
215.2613645784914
 20
-83.0985656447325
 30
0.0
 10
215.261364578673
 20
-82.62369191066766
 30
0.0
 10
215.5542577975088
 20
-82.33079869205453
 30
0.0
 10
215.8471510163433
 20
-82.03790547344205
 30
0.0
 10
216.3220247504113
 20
-82.0379054736243
 30
0.0
 10
216.6149179690232
 20
-82.33079869246009
 30
0.0
  0
SPLINE
  5
9D
330
87
100
AcDbEntity
  8
LAYER_1
 62
   250
100
AcDbSpline
210
0.0
220
0.0
230
1.0
 70
    11
 71
     3
 72
    17
 73
    13
 74
     0
 42
0.0000000001
 43
0.0000000001
 12
1.0
 22
0.0
 32
0.0
 13
1.0
 23
0.0
 33
0.0
 40
0.0
 40
0.0
 40
0.0
 40
0.0
 40
1.0
 40
1.0
 40
1.0
 40
2.0
 40
2.0
 40
2.0
 40
3.0
 40
3.0
 40
3.0
 40
4.0
 40
4.0
 40
4.0
 40
4.0
 10
220.0011781280336
 20
-77.5961194593489
 30
0.0
 10
220.3598975954489
 20
-77.80322624061291
 30
0.0
 10
220.4828039616669
 20
-78.26191904462038
 30
0.0
 10
220.2756971804022
 20
-78.62063851203821
 30
0.0
 10
220.0685903991389
 20
-78.97935797945476
 30
0.0
 10
219.6098975951307
 20
-79.1022643456721
 30
0.0
 10
219.2511781277142
 20
-78.89515756440937
 30
0.0
 10
218.8924586602976
 20
-78.68805078314472
 30
0.0
 10
218.7695522940816
 20
-78.22935797913661
 30
0.0
 10
218.9766590753443
 20
-77.87063851171878
 30
0.0
 10
219.1837658566064
 20
-77.51191904430223
 30
0.0
 10
219.6424586606171
 20
-77.38901267808617
 30
0.0
 10
220.0011781280336
 20
-77.5961194593489
 30
0.0
  0
SPLINE
  5
9E
330
87
100
AcDbEntity
  8
LAYER_1
 62
   250
100
AcDbSpline
210
0.0
220
0.0
230
1.0
 70
    11
 71
     3
 72
    17
 73
    13
 74
     0
 42
0.0000000001
 43
0.0000000001
 12
1.0
 22
0.0
 32
0.0
 13
1.0
 23
0.0
 33
0.0
 40
0.0
 40
0.0
 40
0.0
 40
0.0
 40
1.0
 40
1.0
 40
1.0
 40
2.0
 40
2.0
 40
2.0
 40
3.0
 40
3.0
 40
3.0
 40
4.0
 40
4.0
 40
4.0
 40
4.0
 10
222.0466291122155
 20
-72.14634188808365
 30
0.0
 10
222.4467286895445
 20
-72.25354824689329
 30
0.0
 10
222.6841655564156
 20
-72.66480096427716
 30
0.0
 10
222.5769591976066
 20
-73.06490054160881
 30
0.0
 10
222.4697528387976
 20
-73.46500011893916
 30
0.0
 10
222.0585001214131
 20
-73.70243698580954
 30
0.0
 10
221.6584005440833
 20
-73.59523062700184
 30
0.0
 10
221.2583009667524
 20
-73.48802426819155
 30
0.0
 10
221.0208640998833
 20
-73.07677155080704
 30
0.0
 10
221.1280704586903
 20
-72.67667197347541
 30
0.0
 10
221.2352768174974
 20
-72.27657239614506
 30
0.0
 10
221.6465295348851
 20
-72.03913552927594
 30
0.0
 10
222.0466291122155
 20
-72.14634188808365
 30
0.0
  0
SPLINE
  5
9F
330
87
100
AcDbEntity
  8
LAYER_1
 62
   250
100
AcDbSpline
210
0.0
220
0.0
230
1.0
 70
    11
 71
     3
 72
    17
 73
    13
 74
     0
 42
0.0000000001
 43
0.0000000001
 12
1.0
 22
0.0
 32
0.0
 13
1.0
 23
0.0
 33
0.0
 40
0.0
 40
0.0
 40
0.0
 40
0.0
 40
1.0
 40
1.0
 40
1.0
 40
2.0
 40
2.0
 40
2.0
 40
3.0
 40
3.0
 40
3.0
 40
4.0
 40
4.0
 40
4.0
 40
4.0
 10
222.6118768172729
 20
-66.35285931394188
 30
0.0
 10
223.0260903795179
 20
-66.35285931411129
 30
0.0
 10
223.361876816948
 20
-66.68864575181092
 30
0.0
 10
223.3618768167806
 20
-67.10285931405853
 30
0.0
 10
223.3618768166118
 20
-67.51707287630485
 30
0.0
 10
223.0260903789115
 20
-67.85285931373498
 30
0.0
 10
222.6118768166658
 20
-67.85285931356815
 30
0.0
 10
222.1976632544182
 20
-67.85285931339808
 30
0.0
 10
221.8618768169894
 20
-67.5170728756978
 30
0.0
 10
221.8618768171562
 20
-67.1028593134502
 30
0.0
 10
221.8618768173231
 20
-66.68864575120452
 30
0.0
 10
222.1976632550266
 20
-66.35285931377439
 30
0.0
 10
222.6118768172729
 20
-66.35285931394188
 30
0.0
  0
SPLINE
  5
A0
330
87
100
AcDbEntity
  8
LAYER_1
 62
   250
100
AcDbSpline
210
0.0
220
0.0
230
1.0
 70
    11
 71
     3
 72
    17
 73
    13
 74
     0
 42
0.0000000001
 43
0.0000000001
 12
1.0
 22
0.0
 32
0.0
 13
1.0
 23
0.0
 33
0.0
 40
0.0
 40
0.0
 40
0.0
 40
0.0
 40
1.0
 40
1.0
 40
1.0
 40
2.0
 40
2.0
 40
2.0
 40
3.0
 40
3.0
 40
3.0
 40
4.0
 40
4.0
 40
4.0
 40
4.0
 10
221.6584005462234
 20
-60.61048800014562
 30
0.0
 10
222.0585001236398
 20
-60.5032816416639
 30
0.0
 10
222.4697528408331
 20
-60.74071850886477
 30
0.0
 10
222.576959199318
 20
-61.14081808628303
 30
0.0
 10
222.684165557801
 20
-61.54091766370001
 30
0.0
 10
222.4467286905995
 20
-61.95217038089395
 30
0.0
 10
222.0466291131831
 20
-62.05937673937824
 30
0.0
 10
221.6465295357642
 20
-62.16658309786061
 30
0.0
 10
221.2352768185722
 20
-61.92914623065974
 30
0.0
 10
221.1280704600867
 20
-61.52904665324148
 30
0.0
 10
221.0208641016017
 20
-61.1289470758245
 30
0.0
 10
221.2583009688064
 20
-60.71769435863056
 30
0.0
 10
221.6584005462234
 20
-60.61048800014562
 30
0.0
  0
SPLINE
  5
A1
330
87
100
AcDbEntity
  8
LAYER_1
 62
   250
100
AcDbSpline
210
0.0
220
0.0
230
1.0
 70
    11
 71
     3
 72
    17
 73
    13
 74
     0
 42
0.0000000001
 43
0.0000000001
 12
1.0
 22
0.0
 32
0.0
 13
1.0
 23
0.0
 33
0.0
 40
0.0
 40
0.0
 40
0.0
 40
0.0
 40
1.0
 40
1.0
 40
1.0
 40
2.0
 40
2.0
 40
2.0
 40
3.0
 40
3.0
 40
3.0
 40
4.0
 40
4.0
 40
4.0
 40
4.0
 10
219.2511781312423
 20
-55.31056106199244
 30
0.0
 10
219.6098975988256
 20
-55.10345428102168
 30
0.0
 10
220.0685904027349
 20
-55.226360647608
 30
0.0
 10
220.2756971837082
 20
-55.58508011519331
 30
0.0
 10
220.4828039646803
 20
-55.94379958277798
 30
0.0
 10
220.3598975980933
 20
-56.40249238668727
 30
0.0
 10
220.0011781305099
 20
-56.60959916765931
 30
0.0
 10
219.6424586629233
 20
-56.81670594863071
 30
0.0
 10
219.1837658590153
 20
-56.69379958204375
 30
0.0
 10
218.976659078042
 20
-56.33508011445907
 30
0.0
 10
218.7695522970687
 20
-55.97636064687569
 30
0.0
 10
218.8924586636576
 20
-55.51766784296512
 30
0.0
 10
219.2511781312423
 20
-55.31056106199244
 30
0.0
  0
SPLINE
  5
A2
330
87
100
AcDbEntity
  8
LAYER_1
 62
   250
100
AcDbSpline
210
0.0
220
0.0
230
1.0
 70
    11
 71
     3
 72
    17
 73
    13
 74
     0
 42
0.0000000001
 43
0.0000000001
 12
1.0
 22
0.0
 32
0.0
 13
1.0
 23
0.0
 33
0.0
 40
0.0
 40
0.0
 40
0.0
 40
0.0
 40
1.0
 40
1.0
 40
1.0
 40
2.0
 40
2.0
 40
2.0
 40
3.0
 40
3.0
 40
3.0
 40
4.0
 40
4.0
 40
4.0
 40
4.0
 10
215.5542578017774
 20
-50.81425976175161
 30
0.0
 10
215.847151020626
 20
-50.52136654315454
 30
0.0
 10
216.3220247546915
 20
-50.52136654335667
 30
0.0
 10
216.6149179732911
 20
-50.81425976220658
 30
0.0
 10
216.9078111918895
 20
-51.10715298105584
 30
0.0
 10
216.907811191688
 20
-51.58202671512197
 30
0.0
 10
216.6149179728394
 20
-51.87491993371969
 30
0.0
 10
216.3220247539882
 20
-52.16781315231741
 30
0.0
 10
215.8471510199233
 20
-52.16781315211591
 30
0.0
 10
215.5542578013237
 20
-51.87491993326601
 30
0.0
 10
215.2613645827247
 20
-51.58202671441803
 30
0.0
 10
215.2613645829281
 20
-51.10715298035061
 30
0.0
 10
215.5542578017774
 20
-50.81425976175161
 30
0.0
  0
SPLINE
  5
A3
330
87
100
AcDbEntity
  8
LAYER_1
 62
   250
100
AcDbSpline
210
0.0
220
0.0
230
1.0
 70
    11
 71
     3
 72
    17
 73
    13
 74
     0
 42
0.0000000001
 43
0.0000000001
 12
1.0
 22
0.0
 32
0.0
 13
1.0
 23
0.0
 33
0.0
 40
0.0
 40
0.0
 40
0.0
 40
0.0
 40
1.0
 40
1.0
 40
1.0
 40
2.0
 40
2.0
 40
2.0
 40
3.0
 40
3.0
 40
3.0
 40
4.0
 40
4.0
 40
4.0
 40
4.0
 10
210.8195785688176
 20
-47.42799960252876
 30
0.0
 10
211.026685350097
 20
-47.0692801351228
 30
0.0
 10
211.4853781541109
 20
-46.94637376892599
 30
0.0
 10
211.8440976215191
 20
-47.15348055020605
 30
0.0
 10
212.202817088926
 20
-47.36058733148578
 30
0.0
 10
212.3257234551235
 20
-47.81928013549934
 30
0.0
 10
212.1186166738447
 20
-48.17799960290594
 30
0.0
 10
211.9115098925627
 20
-48.53671907031286
 30
0.0
 10
211.4528170885501
 20
-48.65962543650968
 30
0.0
 10
211.0940976211413
 20
-48.45251865523026
 30
0.0
 10
210.7353781537344
 20
-48.24541187395213
 30
0.0
 10
210.6124717875388
 20
-47.78671906993632
 30
0.0
 10
210.8195785688176
 20
-47.42799960252876
 30
0.0
  0
SPLINE
  5
A4
330
87
100
AcDbEntity
  8
LAYER_1
 62
   250
100
AcDbSpline
210
0.0
220
0.0
230
1.0
 70
    11
 71
     3
 72
    17
 73
    13
 74
     0
 42
0.0000000001
 43
0.0000000001
 12
1.0
 22
0.0
 32
0.0
 13
1.0
 23
0.0
 33
0.0
 40
0.0
 40
0.0
 40
0.0
 40
0.0
 40
1.0
 40
1.0
 40
1.0
 40
2.0
 40
2.0
 40
2.0
 40
3.0
 40
3.0
 40
3.0
 40
4.0
 40
4.0
 40
4.0
 40
4.0
 10
205.3698009976441
 20
-45.38254861810243
 30
0.0
 10
205.4770073564711
 20
-44.98244904077817
 30
0.0
 10
205.8882600738665
 20
-44.74501217392607
 30
0.0
 10
206.288359651193
 20
-44.85221853275239
 30
0.0
 10
206.6884592285182
 20
-44.95942489157967
 30
0.0
 10
206.9258960953707
 20
-45.37067760897446
 30
0.0
 10
206.818689736545
 20
-45.77077718629936
 30
0.0
 10
206.7114833777161
 20
-46.17087676362522
 30
0.0
 10
206.3002306603213
 20
-46.40831363047668
 30
0.0
 10
205.9001310829948
 20
-46.30110727165068
 30
0.0
 10
205.5000315056696
 20
-46.19390091282564
 30
0.0
 10
205.2625946388185
 20
-45.78264819542764
 30
0.0
 10
205.3698009976441
 20
-45.38254861810243
 30
0.0
  0
ENDBLK
  5
8A
330
87
100
AcDbEntity
  8
0
100
AcDbBlockEnd
  0
ENDSEC
  0
SECTION
  2
ENTITIES
  0
SPLINE
  5
41
330
1F
100
AcDbEntity
  8
LAYER_1
 62
   250
100
AcDbSpline
210
0.0
220
0.0
230
1.0
 70
    11
 71
     3
 72
    29
 73
    25
 74
     0
 42
0.0000000001
 43
0.0000000001
 12
1.0
 22
0.0
 32
0.0
 13
1.0
 23
0.0
 33
0.0
 40
0.0
 40
0.0
 40
0.0
 40
0.0
 40
1.0
 40
1.0
 40
1.0
 40
2.0
 40
2.0
 40
2.0
 40
3.0
 40
3.0
 40
3.0
 40
4.0
 40
4.0
 40
4.0
 40
5.0
 40
5.0
 40
5.0
 40
6.0
 40
6.0
 40
6.0
 40
7.0
 40
7.0
 40
7.0
 40
8.0
 40
8.0
 40
8.0
 40
8.0
 10
3.709646520746851
 20
-10.08361146462862
 30
0.0
 10
3.709646520746851
 20
-10.08361146462862
 30
0.0
 10
3.709646520746851
 20
-44.46206858900927
 30
0.0
 10
3.709646520746851
 20
-44.46206858900927
 30
0.0
 10
3.709646520746851
 20
-46.36345985101222
 30
0.0
 10
5.435940804711978
 20
-47.90486016665334
 30
0.0
 10
7.565418919685252
 20
-47.90486016665334
 30
0.0
 10
7.565418919685252
 20
-47.90486016665334
 30
0.0
 10
17.49274147444083
 20
-47.90486016665334
 30
0.0
 10
17.49274147444083
 20
-47.90486016665334
 30
0.0
 10
19.62224112126089
 20
-47.90486016665334
 30
0.0
 10
21.34853540522602
 20
-46.36345985101222
 30
0.0
 10
21.34853540522602
 20
-44.46206858900927
 30
0.0
 10
21.34853540522602
 20
-44.46206858900927
 30
0.0
 10
21.34853540522602
 20
-10.08361146462862
 30
0.0
 10
21.34853540522602
 20
-10.08361146462862
 30
0.0
 10
21.34853540522602
 20
-8.18222020262567
 30
0.0
 10
19.62224112126089
 20
-6.640819886984543
 30
0.0
 10
17.49274147444083
 20
-6.640819886984543
 30
0.0
 10
17.49274147444083
 20
-6.640819886984543
 30
0.0
 10
7.565418919685252
 20
-6.640819886984543
 30
0.0
 10
7.565418919685252
 20
-6.640819886984543
 30
0.0
 10
5.435940804711978
 20
-6.640819886984543
 30
0.0
 10
3.709646520746851
 20
-8.18222020262567
 30
0.0
 10
3.709646520746851
 20
-10.08361146462862
 30
0.0
  0
SPLINE
  5
42
330
1F
100
AcDbEntity
  8
LAYER_1
 62
   250
100
AcDbSpline
210
0.0
220
0.0
230
1.0
 70
    11
 71
     3
 72
    17
 73
    13
 74
     0
 42
0.0000000001
 43
0.0000000001
 12
1.0
 22
0.0
 32
0.0
 13
1.0
 23
0.0
 33
0.0
 40
0.0
 40
0.0
 40
0.0
 40
0.0
 40
1.0
 40
1.0
 40
1.0
 40
2.0
 40
2.0
 40
2.0
 40
3.0
 40
3.0
 40
3.0
 40
4.0
 40
4.0
 40
4.0
 40
4.0
 10
15.02908909739833
 20
-38.39081987904704
 30
0.0
 10
15.02908909739833
 20
-39.77152802214805
 30
0.0
 10
13.90979910608744
 20
-40.89081801345894
 30
0.0
 10
12.52909096298643
 20
-40.89081801345894
 30
0.0
 10
11.14838281988543
 20
-40.89081801345894
 30
0.0
 10
10.02909282857454
 20
-39.77152802214805
 30
0.0
 10
10.02909282857454
 20
-38.39081987904704
 30
0.0
 10
10.02909282857454
 20
-37.01011173594604
 30
0.0
 10
11.14838281988543
 20
-35.89082174463515
 30
0.0
 10
12.52909096298643
 20
-35.89082174463515
 30
0.0
 10
13.90979910608744
 20
-35.89082174463515
 30
0.0
 10
15.02908909739833
 20
-37.01011173594604
 30
0.0
 10
15.02908909739833
 20
-38.39081987904704
 30
0.0
  0
SPLINE
  5
43
330
1F
100
AcDbEntity
  8
LAYER_1
 62
   250
100
AcDbSpline
210
0.0
220
0.0
230
1.0
 70
    11
 71
     3
 72
    17
 73
    13
 74
     0
 42
0.0000000001
 43
0.0000000001
 12
1.0
 22
0.0
 32
0.0
 13
1.0
 23
0.0
 33
0.0
 40
0.0
 40
0.0
 40
0.0
 40
0.0
 40
1.0
 40
1.0
 40
1.0
 40
2.0
 40
2.0
 40
2.0
 40
3.0
 40
3.0
 40
3.0
 40
4.0
 40
4.0
 40
4.0
 40
4.0
 10
15.02908909739833
 20
-15.6798891664088
 30
0.0
 10
15.02908909739833
 20
-17.06059730950981
 30
0.0
 10
13.90979910608744
 20
-18.1798873008207
 30
0.0
 10
12.52909096298643
 20
-18.1798873008207
 30
0.0
 10
11.14838281988543
 20
-18.1798873008207
 30
0.0
 10
10.02909282857454
 20
-17.06059730950981
 30
0.0
 10
10.02909282857454
 20
-15.6798891664088
 30
0.0
 10
10.02909282857454
 20
-14.29915949146102
 30
0.0
 10
11.14838281988543
 20
-13.17986950015013
 30
0.0
 10
12.52909096298643
 20
-13.17986950015013
 30
0.0
 10
13.90979910608744
 20
-13.17986950015013
 30
0.0
 10
15.02908909739833
 20
-14.29915949146102
 30
0.0
 10
15.02908909739833
 20
-15.6798891664088
 30
0.0
  0
SPLINE
  5
44
330
1F
100
AcDbEntity
  8
LAYER_1
 62
   250
100
AcDbSpline
210
0.0
220
0.0
230
1.0
 70
    11
 71
     3
 72
    29
 73
    25
 74
     0
 42
0.0000000001
 43
0.0000000001
 12
1.0
 22
0.0
 32
0.0
 13
1.0
 23
0.0
 33
0.0
 40
0.0
 40
0.0
 40
0.0
 40
0.0
 40
1.0
 40
1.0
 40
1.0
 40
2.0
 40
2.0
 40
2.0
 40
3.0
 40
3.0
 40
3.0
 40
4.0
 40
4.0
 40
4.0
 40
5.0
 40
5.0
 40
5.0
 40
6.0
 40
6.0
 40
6.0
 40
7.0
 40
7.0
 40
7.0
 40
8.0
 40
8.0
 40
8.0
 40
8.0
 10
21.34853540522602
 20
-87.5011129001574
 30
0.0
 10
21.34853540522602
 20
-87.5011129001574
 30
0.0
 10
21.34853540522602
 20
-53.12265577577675
 30
0.0
 10
21.34853540522602
 20
-53.12265577577675
 30
0.0
 10
21.34853540522602
 20
-51.2212645137738
 30
0.0
 10
19.62224112126089
 20
-49.67986419813268
 30
0.0
 10
17.49276300628762
 20
-49.67986419813268
 30
0.0
 10
17.49276300628762
 20
-49.67986419813268
 30
0.0
 10
7.565440451532035
 20
-49.67986419813268
 30
0.0
 10
7.565440451532035
 20
-49.67986419813268
 30
0.0
 10
5.435940804711978
 20
-49.67986419813268
 30
0.0
 10
3.709646520746851
 20
-51.2212645137738
 30
0.0
 10
3.709646520746851
 20
-53.12265577577675
 30
0.0
 10
3.709646520746851
 20
-53.12265577577675
 30
0.0
 10
3.709646520746851
 20
-87.5011129001574
 30
0.0
 10
3.709646520746851
 20
-87.5011129001574
 30
0.0
 10
3.709646520746851
 20
-89.40250416216035
 30
0.0
 10
5.435940804711978
 20
-90.94390447780148
 30
0.0
 10
7.565440451532035
 20
-90.94390447780148
 30
0.0
 10
7.565440451532035
 20
-90.94390447780148
 30
0.0
 10
17.49276300628762
 20
-90.94390447780148
 30
0.0
 10
17.49276300628762
 20
-90.94390447780148
 30
0.0
 10
19.62224112126089
 20
-90.94390447780148
 30
0.0
 10
21.34853540522602
 20
-89.40250416216035
 30
0.0
 10
21.34853540522602
 20
-87.5011129001574
 30
0.0
  0
SPLINE
  5
45
330
1F
100
AcDbEntity
  8
LAYER_1
 62
   250
100
AcDbSpline
210
0.0
220
0.0
230
1.0
 70
    11
 71
     3
 72
    17
 73
    13
 74
     0
 42
0.0000000001
 43
0.0000000001
 12
1.0
 22
0.0
 32
0.0
 13
1.0
 23
0.0
 33
0.0
 40
0.0
 40
0.0
 40
0.0
 40
0.0
 40
1.0
 40
1.0
 40
1.0
 40
2.0
 40
2.0
 40
2.0
 40
3.0
 40
3.0
 40
3.0
 40
4.0
 40
4.0
 40
4.0
 40
4.0
 10
10.02909282857454
 20
-59.19390448573898
 30
0.0
 10
10.02909282857454
 20
-57.81319634263797
 30
0.0
 10
11.14838281988543
 20
-56.69390635132708
 30
0.0
 10
12.52909096298643
 20
-56.69390635132708
 30
0.0
 10
13.90979910608744
 20
-56.69390635132708
 30
0.0
 10
15.02908909739833
 20
-57.81319634263797
 30
0.0
 10
15.02908909739833
 20
-59.19390448573898
 30
0.0
 10
15.02908909739833
 20
-60.57461262883998
 30
0.0
 10
13.90979910608744
 20
-61.69390262015087
 30
0.0
 10
12.52909096298643
 20
-61.69390262015087
 30
0.0
 10
11.14838281988543
 20
-61.69390262015087
 30
0.0
 10
10.02909282857454
 20
-60.57461262883998
 30
0.0
 10
10.02909282857454
 20
-59.19390448573898
 30
0.0
  0
SPLINE
  5
46
330
1F
100
AcDbEntity
  8
LAYER_1
 62
   250
100
AcDbSpline
210
0.0
220
0.0
230
1.0
 70
    11
 71
     3
 72
    17
 73
    13
 74
     0
 42
0.0000000001
 43
0.0000000001
 12
1.0
 22
0.0
 32
0.0
 13
1.0
 23
0.0
 33
0.0
 40
0.0
 40
0.0
 40
0.0
 40
0.0
 40
1.0
 40
1.0
 40
1.0
 40
2.0
 40
2.0
 40
2.0
 40
3.0
 40
3.0
 40
3.0
 40
4.0
 40
4.0
 40
4.0
 40
4.0
 10
10.02909282857454
 20
-81.90483519837721
 30
0.0
 10
10.02909282857454
 20
-80.52412705527621
 30
0.0
 10
11.14838281988543
 20
-79.40483706396532
 30
0.0
 10
12.52909096298643
 20
-79.40483706396532
 30
0.0
 10
13.90979910608744
 20
-79.40483706396532
 30
0.0
 10
15.02908909739833
 20
-80.52412705527621
 30
0.0
 10
15.02908909739833
 20
-81.90483519837721
 30
0.0
 10
15.02908909739833
 20
-83.285564873325
 30
0.0
 10
13.90979910608744
 20
-84.4048548646359
 30
0.0
 10
12.52909096298643
 20
-84.4048548646359
 30
0.0
 10
11.14838281988543
 20
-84.4048548646359
 30
0.0
 10
10.02909282857454
 20
-83.285564873325
 30
0.0
 10
10.02909282857454
 20
-81.90483519837721
 30
0.0
  0
SPLINE
  5
47
330
1F
100
AcDbEntity
  8
LAYER_1
 62
   250
100
AcDbSpline
210
0.0
220
0.0
230
1.0
 70
    11
 71
     3
 72
    29
 73
    25
 74
     0
 42
0.0000000001
 43
0.0000000001
 12
1.0
 22
0.0
 32
0.0
 13
1.0
 23
0.0
 33
0.0
 40
0.0
 40
0.0
 40
0.0
 40
0.0
 40
1.0
 40
1.0
 40
1.0
 40
2.0
 40
2.0
 40
2.0
 40
3.0
 40
3.0
 40
3.0
 40
4.0
 40
4.0
 40
4.0
 40
5.0
 40
5.0
 40
5.0
 40
6.0
 40
6.0
 40
6.0
 40
7.0
 40
7.0
 40
7.0
 40
8.0
 40
8.0
 40
8.0
 40
8.0
 10
47.80138887693855
 20
-56.40641481525851
 30
0.0
 10
47.80138887693855
 20
-56.40641481525851
 30
0.0
 10
47.80138887693855
 20
-37.68970627637215
 30
0.0
 10
47.80138887693855
 20
-37.68970627637215
 30
0.0
 10
47.91199797386184
 20
-37.69209631136504
 30
0.0
 10
48.02170273322027
 20
-37.69808216477067
 30
0.0
 10
48.13287165815993
 20
-37.69808216477067
 30
0.0
 10
56.50016884980725
 20
-37.69808216477067
 30
0.0
 10
63.28319581886888
 20
-30.91505519570904
 30
0.0
 10
63.28319581886888
 20
-22.54775800406172
 30
0.0
 10
63.28319581886888
 20
-14.18048234426118
 30
0.0
 10
56.50016884980725
 20
-7.39743384335277
 30
0.0
 10
48.13287165815993
 20
-7.39743384335277
 30
0.0
 10
48.02170273322027
 20
-7.39743384335277
 30
0.0
 10
47.91199797386184
 20
-7.403419696758392
 30
0.0
 10
47.80138887693855
 20
-7.405809731751283
 30
0.0
 10
47.80138887693855
 20
-7.405809731751283
 30
0.0
 10
47.80138887693855
 20
-7.311801688697528
 30
0.0
 10
47.80138887693855
 20
-7.311801688697528
 30
0.0
 10
34.24429218707695
 20
-7.311801688697528
 30
0.0
 10
23.25407154773466
 20
-18.30200079619303
 30
0.0
 10
23.25407154773466
 20
-31.85911901790141
 30
0.0
 10
23.25407154773466
 20
-45.41621570776301
 30
0.0
 10
34.24429218707695
 20
-56.40641481525851
 30
0.0
 10
47.80138887693855
 20
-56.40641481525851
 30
0.0
  0
SPLINE
  5
48
330
1F
100
AcDbEntity
  8
LAYER_1
 62
   250
100
AcDbSpline
210
0.0
220
0.0
230
1.0
 70
    11
 71
     3
 72
    17
 73
    13
 74
     0
 42
0.0000000001
 43
0.0000000001
 12
1.0
 22
0.0
 32
0.0
 13
1.0
 23
0.0
 33
0.0
 40
0.0
 40
0.0
 40
0.0
 40
0.0
 40
1.0
 40
1.0
 40
1.0
 40
2.0
 40
2.0
 40
2.0
 40
3.0
 40
3.0
 40
3.0
 40
4.0
 40
4.0
 40
4.0
 40
4.0
 10
47.64213933813287
 20
-19.93833502429958
 30
0.0
 10
49.02284748123387
 20
-19.93833502429958
 30
0.0
 10
50.14213747254476
 20
-21.05762501561047
 30
0.0
 10
50.14213747254476
 20
-22.43833315871147
 30
0.0
 10
50.14213747254476
 20
-23.81904130181247
 30
0.0
 10
49.02284748123387
 20
-24.93833129312336
 30
0.0
 10
47.64213933813287
 20
-24.93833129312336
 30
0.0
 10
46.26143119503187
 20
-24.93833129312336
 30
0.0
 10
45.14214120372097
 20
-23.81904130181247
 30
0.0
 10
45.14214120372097
 20
-22.43833315871147
 30
0.0
 10
45.14214120372097
 20
-21.05762501561047
 30
0.0
 10
46.26143119503187
 20
-19.93833502429958
 30
0.0
 10
47.64213933813287
 20
-19.93833502429958
 30
0.0
  0
SPLINE
  5
49
330
1F
100
AcDbEntity
  8
LAYER_1
 62
   250
100
AcDbSpline
210
0.0
220
0.0
230
1.0
 70
     8
 71
     3
 72
    26
 73
    22
 74
     0
 42
0.0000000001
 43
0.0000000001
 12
1.0
 22
0.0
 32
0.0
 13
1.0
 23
0.0
 33
0.0
 40
0.0
 40
0.0
 40
0.0
 40
0.0
 40
1.0
 40
1.0
 40
1.0
 40
2.0
 40
2.0
 40
2.0
 40
3.0
 40
3.0
 40
3.0
 40
4.0
 40
4.0
 40
4.0
 40
5.0
 40
5.0
 40
5.0
 40
6.0
 40
6.0
 40
6.0
 40
7.0
 40
7.0
 40
7.0
 40
7.0
 10
47.80138887693855
 20
-56.41770852946184
 30
0.0
 10
47.69077978001524
 20
-56.41531849446895
 30
0.0
 10
47.58107502065682
 20
-56.40933264106333
 30
0.0
 10
47.46990609571716
 20
-56.40933264106333
 30
0.0
 10
39.10260890406983
 20
-56.40933264106333
 30
0.0
 10
32.31958193500822
 20
-63.19235961012495
 30
0.0
 10
32.31958193500822
 20
-71.55965680177228
 30
0.0
 10
32.31958193500822
 20
-79.92693246157282
 30
0.0
 10
39.10260890406983
 20
-86.70998096248123
 30
0.0
 10
47.46990609571716
 20
-86.70998096248123
 30
0.0
 10
47.58107502065682
 20
-86.70998096248123
 30
0.0
 10
47.69077978001524
 20
-86.7039951090756
 30
0.0
 10
47.80138887693855
 20
-86.7016050740827
 30
0.0
 10
47.80138887693855
 20
-86.7016050740827
 30
0.0
 10
47.80138887693855
 20
-86.79561311713647
 30
0.0
 10
47.80138887693855
 20
-86.79561311713647
 30
0.0
 10
61.35848556680014
 20
-86.79561311713647
 30
0.0
 10
72.34870620614242
 20
-75.80541400964096
 30
0.0
 10
72.34870620614242
 20
-62.24829578793258
 30
0.0
 10
72.34870620614242
 20
-48.69119909807034
 30
0.0
 10
61.35848556680014
 20
-37.70099999057484
 30
0.0
 10
47.80138887693855
 20
-37.70099999057484
 30
0.0
  0
SPLINE
  5
4A
330
1F
100
AcDbEntity
  8
LAYER_1
 62
   250
100
AcDbSpline
210
0.0
220
0.0
230
1.0
 70
    11
 71
     3
 72
    17
 73
    13
 74
     0
 42
0.0000000001
 43
0.0000000001
 12
1.0
 22
0.0
 32
0.0
 13
1.0
 23
0.0
 33
0.0
 40
0.0
 40
0.0
 40
0.0
 40
0.0
 40
1.0
 40
1.0
 40
1.0
 40
2.0
 40
2.0
 40
2.0
 40
3.0
 40
3.0
 40
3.0
 40
4.0
 40
4.0
 40
4.0
 40
4.0
 10
47.96063841574422
 20
-74.16907978153442
 30
0.0
 10
46.57993027264322
 20
-74.16907978153442
 30
0.0
 10
45.46064028133232
 20
-73.04978979022353
 30
0.0
 10
45.46064028133232
 20
-71.66908164712252
 30
0.0
 10
45.46064028133232
 20
-70.28837350402152
 30
0.0
 10
46.57993027264322
 20
-69.16908351271063
 30
0.0
 10
47.96063841574422
 20
-69.16908351271063
 30
0.0
 10
49.34134655884522
 20
-69.16908351271063
 30
0.0
 10
50.46063655015611
 20
-70.28837350402152
 30
0.0
 10
50.46063655015611
 20
-71.66908164712252
 30
0.0
 10
50.46063655015611
 20
-73.04978979022353
 30
0.0
 10
49.34134655884522
 20
-74.16907978153442
 30
0.0
 10
47.96063841574422
 20
-74.16907978153442
 30
0.0
  0
INSERT
  5
4C
330
1F
100
AcDbEntity
  8
LAYER_1
100
AcDbBlockReference
  2
BLOCK_2
 10
0.0
 20
0.0
 30
0.0
  0
INSERT
  5
6A
330
1F
100
AcDbEntity
  8
LAYER_1
100
AcDbBlockReference
  2
BLOCK_3
 10
0.0
 20
0.0
 30
0.0
  0
INSERT
  5
88
330
1F
100
AcDbEntity
  8
LAYER_1
100
AcDbBlockReference
  2
BLOCK_4
 10
0.0
 20
0.0
 30
0.0
  0
SPLINE
  5
A5
330
1F
100
AcDbEntity
  8
LAYER_1
 62
   250
100
AcDbSpline
210
0.0
220
0.0
230
1.0
 70
    11
 71
     3
 72
    17
 73
    13
 74
     0
 42
0.0000000001
 43
0.0000000001
 12
1.0
 22
0.0
 32
0.0
 13
1.0
 23
0.0
 33
0.0
 40
0.0
 40
0.0
 40
0.0
 40
0.0
 40
1.0
 40
1.0
 40
1.0
 40
2.0
 40
2.0
 40
2.0
 40
3.0
 40
3.0
 40
3.0
 40
4.0
 40
4.0
 40
4.0
 40
4.0
 10
94.41227117933205
 20
-17.33928366598463
 30
0.0
 10
88.88941707508125
 20
-17.33928366598463
 30
0.0
 10
84.4122571098377
 20
-21.81642209938141
 30
0.0
 10
84.4122571098377
 20
-27.3392762036322
 30
0.0
 10
84.4122571098377
 20
-32.862130307883
 30
0.0
 10
88.88941707508125
 20
-37.33926874127977
 30
0.0
 10
94.41227117933205
 20
-37.33926874127977
 30
0.0
 10
99.93510375173607
 20
-37.33926874127977
 30
0.0
 10
104.4122637169796
 20
-32.862130307883
 30
0.0
 10
104.4122637169796
 20
-27.3392762036322
 30
0.0
 10
104.4122637169796
 20
-21.81642209938141
 30
0.0
 10
99.93510375173607
 20
-17.33928366598463
 30
0.0
 10
94.41227117933205
 20
-17.33928366598463
 30
0.0
  0
SPLINE
  5
A6
330
1F
100
AcDbEntity
  8
LAYER_1
 62
   250
100
AcDbSpline
210
0.0
220
0.0
230
1.0
 70
    11
 71
     3
 72
    17
 73
    13
 74
     0
 42
0.0000000001
 43
0.0000000001
 12
1.0
 22
0.0
 32
0.0
 13
1.0
 23
0.0
 33
0.0
 40
0.0
 40
0.0
 40
0.0
 40
0.0
 40
1.0
 40
1.0
 40
1.0
 40
2.0
 40
2.0
 40
2.0
 40
3.0
 40
3.0
 40
3.0
 40
4.0
 40
4.0
 40
4.0
 40
4.0
 10
94.41227117933205
 20
-29.8392743380441
 30
0.0
 10
93.03154150438426
 20
-29.8392743380441
 30
0.0
 10
91.91227304492016
 20
-28.71998434673321
 30
0.0
 10
91.91227304492016
 20
-27.3392762036322
 30
0.0
 10
91.91227304492016
 20
-25.9585680605312
 30
0.0
 10
93.03154150438426
 20
-24.83927806922031
 30
0.0
 10
94.41227117933205
 20
-24.83927806922031
 30
0.0
 10
95.79297932243306
 20
-24.83927806922031
 30
0.0
 10
96.91226931374395
 20
-25.9585680605312
 30
0.0
 10
96.91226931374395
 20
-27.3392762036322
 30
0.0
 10
96.91226931374395
 20
-28.71998434673321
 30
0.0
 10
95.79297932243306
 20
-29.8392743380441
 30
0.0
 10
94.41227117933205
 20
-29.8392743380441
 30
0.0
  0
SPLINE
  5
A7
330
1F
100
AcDbEntity
  8
LAYER_1
 62
   250
100
AcDbSpline
210
0.0
220
0.0
230
1.0
 70
    11
 71
     3
 72
    17
 73
    13
 74
     0
 42
0.0000000001
 43
0.0000000001
 12
1.0
 22
0.0
 32
0.0
 13
1.0
 23
0.0
 33
0.0
 40
0.0
 40
0.0
 40
0.0
 40
0.0
 40
1.0
 40
1.0
 40
1.0
 40
2.0
 40
2.0
 40
2.0
 40
3.0
 40
3.0
 40
3.0
 40
4.0
 40
4.0
 40
4.0
 40
4.0
 10
73.8428333521719
 20
-26.15872810822421
 30
0.0
 10
68.3199792479211
 20
-26.15872810822421
 30
0.0
 10
63.84281928267754
 20
-30.63586654162099
 30
0.0
 10
63.84281928267754
 20
-36.15872064587179
 30
0.0
 10
63.84281928267754
 20
-41.68157475012259
 30
0.0
 10
68.3199792479211
 20
-46.15871318351936
 30
0.0
 10
73.8428333521719
 20
-46.15871318351936
 30
0.0
 10
79.36566592457591
 20
-46.15871318351936
 30
0.0
 10
83.84282588981947
 20
-41.68157475012259
 30
0.0
 10
83.84282588981947
 20
-36.15872064587179
 30
0.0
 10
83.84282588981947
 20
-30.63586654162099
 30
0.0
 10
79.36566592457591
 20
-26.15872810822421
 30
0.0
 10
73.8428333521719
 20
-26.15872810822421
 30
0.0
  0
SPLINE
  5
A8
330
1F
100
AcDbEntity
  8
LAYER_1
 62
   250
100
AcDbSpline
210
0.0
220
0.0
230
1.0
 70
    11
 71
     3
 72
    17
 73
    13
 74
     0
 42
0.0000000001
 43
0.0000000001
 12
1.0
 22
0.0
 32
0.0
 13
1.0
 23
0.0
 33
0.0
 40
0.0
 40
0.0
 40
0.0
 40
0.0
 40
1.0
 40
1.0
 40
1.0
 40
2.0
 40
2.0
 40
2.0
 40
3.0
 40
3.0
 40
3.0
 40
4.0
 40
4.0
 40
4.0
 40
4.0
 10
73.8428333521719
 20
-38.65871878028368
 30
0.0
 10
72.4621036772241
 20
-38.65871878028368
 30
0.0
 10
71.34283521776
 20
-37.53942878897279
 30
0.0
 10
71.34283521776
 20
-36.15872064587179
 30
0.0
 10
71.34283521776
 20
-34.77801250277079
 30
0.0
 10
72.4621036772241
 20
-33.65872251145989
 30
0.0
 10
73.8428333521719
 20
-33.65872251145989
 30
0.0
 10
75.2235414952729
 20
-33.65872251145989
 30
0.0
 10
76.34283148658379
 20
-34.77801250277079
 30
0.0
 10
76.34283148658379
 20
-36.15872064587179
 30
0.0
 10
76.34283148658379
 20
-37.53942878897279
 30
0.0
 10
75.2235414952729
 20
-38.65871878028368
 30
0.0
 10
73.8428333521719
 20
-38.65871878028368
 30
0.0
  0
SPLINE
  5
A9
330
1F
100
AcDbEntity
  8
LAYER_1
 62
   250
100
AcDbSpline
210
0.0
220
0.0
230
1.0
 70
    11
 71
     3
 72
    17
 73
    13
 74
     0
 42
0.0000000001
 43
0.0000000001
 12
1.0
 22
0.0
 32
0.0
 13
1.0
 23
0.0
 33
0.0
 40
0.0
 40
0.0
 40
0.0
 40
0.0
 40
1.0
 40
1.0
 40
1.0
 40
2.0
 40
2.0
 40
2.0
 40
3.0
 40
3.0
 40
3.0
 40
4.0
 40
4.0
 40
4.0
 40
4.0
 10
76.55116825309257
 20
-4.286505891470047
 30
0.0
 10
71.02831414884177
 20
-4.286505891470047
 30
0.0
 10
66.55115418359821
 20
-8.763644324866823
 30
0.0
 10
66.55115418359821
 20
-14.28649842911762
 30
0.0
 10
66.55115418359821
 20
-19.80935253336841
 30
0.0
 10
71.02831414884177
 20
-24.28649096676519
 30
0.0
 10
76.55116825309257
 20
-24.28649096676519
 30
0.0
 10
82.07400082549658
 20
-24.28649096676519
 30
0.0
 10
86.55116079074014
 20
-19.80935253336841
 30
0.0
 10
86.55116079074014
 20
-14.28649842911762
 30
0.0
 10
86.55116079074014
 20
-8.763644324866823
 30
0.0
 10
82.07400082549658
 20
-4.286505891470047
 30
0.0
 10
76.55116825309257
 20
-4.286505891470047
 30
0.0
  0
SPLINE
  5
AA
330
1F
100
AcDbEntity
  8
LAYER_1
 62
   250
100
AcDbSpline
210
0.0
220
0.0
230
1.0
 70
    11
 71
     3
 72
    17
 73
    13
 74
     0
 42
0.0000000001
 43
0.0000000001
 12
1.0
 22
0.0
 32
0.0
 13
1.0
 23
0.0
 33
0.0
 40
0.0
 40
0.0
 40
0.0
 40
0.0
 40
1.0
 40
1.0
 40
1.0
 40
2.0
 40
2.0
 40
2.0
 40
3.0
 40
3.0
 40
3.0
 40
4.0
 40
4.0
 40
4.0
 40
4.0
 10
76.55116825309257
 20
-16.78649656352951
 30
0.0
 10
75.17043857814478
 20
-16.78649656352951
 30
0.0
 10
74.05117011868067
 20
-15.66720657221862
 30
0.0
 10
74.05117011868067
 20
-14.28649842911762
 30
0.0
 10
74.05117011868067
 20
-12.90579028601661
 30
0.0
 10
75.17043857814478
 20
-11.78650029470573
 30
0.0
 10
76.55116825309257
 20
-11.78650029470573
 30
0.0
 10
77.93187639619357
 20
-11.78650029470573
 30
0.0
 10
79.05116638750447
 20
-12.90579028601661
 30
0.0
 10
79.05116638750447
 20
-14.28649842911762
 30
0.0
 10
79.05116638750447
 20
-15.66720657221862
 30
0.0
 10
77.93187639619357
 20
-16.78649656352951
 30
0.0
 10
76.55116825309257
 20
-16.78649656352951
 30
0.0
  0
SPLINE
  5
AB
330
1F
100
AcDbEntity
  8
LAYER_1
 62
   250
100
AcDbSpline
210
0.0
220
0.0
230
1.0
 70
    11
 71
     3
 72
    17
 73
    13
 74
     0
 42
0.0000000001
 43
0.0000000001
 12
1.0
 22
0.0
 32
0.0
 13
1.0
 23
0.0
 33
0.0
 40
0.0
 40
0.0
 40
0.0
 40
0.0
 40
1.0
 40
1.0
 40
1.0
 40
2.0
 40
2.0
 40
2.0
 40
3.0
 40
3.0
 40
3.0
 40
4.0
 40
4.0
 40
4.0
 40
4.0
 10
188.3427726698604
 20
-6.050394779917964
 30
0.0
 10
182.8199185656096
 20
-6.050394779917964
 30
0.0
 10
178.342758600366
 20
-10.52753321331474
 30
0.0
 10
178.342758600366
 20
-16.05038731756554
 30
0.0
 10
178.342758600366
 20
-21.57324142181633
 30
0.0
 10
182.8199185656096
 20
-26.05037985521311
 30
0.0
 10
188.3427726698604
 20
-26.05037985521311
 30
0.0
 10
193.8656052422644
 20
-26.05037985521311
 30
0.0
 10
198.342765207508
 20
-21.57324142181633
 30
0.0
 10
198.342765207508
 20
-16.05038731756554
 30
0.0
 10
198.342765207508
 20
-10.52753321331474
 30
0.0
 10
193.8656052422644
 20
-6.050394779917964
 30
0.0
 10
188.3427726698604
 20
-6.050394779917964
 30
0.0
  0
SPLINE
  5
AC
330
1F
100
AcDbEntity
  8
LAYER_1
 62
   250
100
AcDbSpline
210
0.0
220
0.0
230
1.0
 70
    11
 71
     3
 72
    17
 73
    13
 74
     0
 42
0.0000000001
 43
0.0000000001
 12
1.0
 22
0.0
 32
0.0
 13
1.0
 23
0.0
 33
0.0
 40
0.0
 40
0.0
 40
0.0
 40
0.0
 40
1.0
 40
1.0
 40
1.0
 40
2.0
 40
2.0
 40
2.0
 40
3.0
 40
3.0
 40
3.0
 40
4.0
 40
4.0
 40
4.0
 40
4.0
 10
188.3427726698604
 20
-18.55038545197743
 30
0.0
 10
186.9620429949126
 20
-18.55038545197743
 30
0.0
 10
185.8427745354485
 20
-17.43109546066654
 30
0.0
 10
185.8427745354485
 20
-16.05038731756554
 30
0.0
 10
185.8427745354485
 20
-14.66967917446453
 30
0.0
 10
186.9620429949126
 20
-13.55038918315364
 30
0.0
 10
188.3427726698604
 20
-13.55038918315364
 30
0.0
 10
189.7234808129614
 20
-13.55038918315364
 30
0.0
 10
190.8427708042723
 20
-14.66967917446453
 30
0.0
 10
190.8427708042723
 20
-16.05038731756554
 30
0.0
 10
190.8427708042723
 20
-17.43109546066654
 30
0.0
 10
189.7234808129614
 20
-18.55038545197743
 30
0.0
 10
188.3427726698604
 20
-18.55038545197743
 30
0.0
  0
SPLINE
  5
AD
330
1F
100
AcDbEntity
  8
LAYER_1
 62
   250
100
AcDbSpline
210
0.0
220
0.0
230
1.0
 70
    11
 71
     3
 72
    17
 73
    13
 74
     0
 42
0.0000000001
 43
0.0000000001
 12
1.0
 22
0.0
 32
0.0
 13
1.0
 23
0.0
 33
0.0
 40
0.0
 40
0.0
 40
0.0
 40
0.0
 40
1.0
 40
1.0
 40
1.0
 40
2.0
 40
2.0
 40
2.0
 40
3.0
 40
3.0
 40
3.0
 40
4.0
 40
4.0
 40
4.0
 40
4.0
 10
114.1778605705495
 20
-6.146421433607608
 30
0.0
 10
108.6550064662987
 20
-6.146421433607608
 30
0.0
 10
104.1778465010552
 20
-10.62355986700438
 30
0.0
 10
104.1778465010552
 20
-16.14641397125518
 30
0.0
 10
104.1778465010552
 20
-21.66926807550598
 30
0.0
 10
108.6550064662987
 20
-26.14640650890275
 30
0.0
 10
114.1778605705495
 20
-26.14640650890275
 30
0.0
 10
119.7006931429535
 20
-26.14640650890275
 30
0.0
 10
124.1778531081971
 20
-21.66926807550598
 30
0.0
 10
124.1778531081971
 20
-16.14641397125518
 30
0.0
 10
124.1778531081971
 20
-10.62355986700438
 30
0.0
 10
119.7006931429535
 20
-6.146421433607608
 30
0.0
 10
114.1778605705495
 20
-6.146421433607608
 30
0.0
  0
SPLINE
  5
AE
330
1F
100
AcDbEntity
  8
LAYER_1
 62
   250
100
AcDbSpline
210
0.0
220
0.0
230
1.0
 70
    11
 71
     3
 72
    17
 73
    13
 74
     0
 42
0.0000000001
 43
0.0000000001
 12
1.0
 22
0.0
 32
0.0
 13
1.0
 23
0.0
 33
0.0
 40
0.0
 40
0.0
 40
0.0
 40
0.0
 40
1.0
 40
1.0
 40
1.0
 40
2.0
 40
2.0
 40
2.0
 40
3.0
 40
3.0
 40
3.0
 40
4.0
 40
4.0
 40
4.0
 40
4.0
 10
114.1778605705495
 20
-18.64641210566707
 30
0.0
 10
112.7971308956017
 20
-18.64641210566707
 30
0.0
 10
111.6778624361376
 20
-17.52712211435618
 30
0.0
 10
111.6778624361376
 20
-16.14641397125518
 30
0.0
 10
111.6778624361376
 20
-14.76570582815418
 30
0.0
 10
112.7971308956017
 20
-13.64641583684329
 30
0.0
 10
114.1778605705495
 20
-13.64641583684329
 30
0.0
 10
115.5585687136505
 20
-13.64641583684329
 30
0.0
 10
116.6778587049614
 20
-14.76570582815418
 30
0.0
 10
116.6778587049614
 20
-16.14641397125518
 30
0.0
 10
116.6778587049614
 20
-17.52712211435618
 30
0.0
 10
115.5585687136505
 20
-18.64641210566707
 30
0.0
 10
114.1778605705495
 20
-18.64641210566707
 30
0.0
  0
SPLINE
  5
AF
330
1F
100
AcDbEntity
  8
LAYER_1
 62
   250
100
AcDbSpline
210
0.0
220
0.0
230
1.0
 70
    11
 71
     3
 72
    17
 73
    13
 74
     0
 42
0.0000000001
 43
0.0000000001
 12
1.0
 22
0.0
 32
0.0
 13
1.0
 23
0.0
 33
0.0
 40
0.0
 40
0.0
 40
0.0
 40
0.0
 40
1.0
 40
1.0
 40
1.0
 40
2.0
 40
2.0
 40
2.0
 40
3.0
 40
3.0
 40
3.0
 40
4.0
 40
4.0
 40
4.0
 40
4.0
 10
138.4112005099664
 20
-75.99642141614511
 30
0.0
 10
132.8883464057156
 20
-75.99642141614511
 30
0.0
 10
128.4111864404721
 20
-80.47355984954189
 30
0.0
 10
128.4111864404721
 20
-85.99641395379268
 30
0.0
 10
128.4111864404721
 20
-91.51926805804348
 30
0.0
 10
132.8883464057156
 20
-95.99640649144025
 30
0.0
 10
138.4112005099664
 20
-95.99640649144025
 30
0.0
 10
143.9340330823705
 20
-95.99640649144025
 30
0.0
 10
148.411193047614
 20
-91.51926805804348
 30
0.0
 10
148.411193047614
 20
-85.99641395379268
 30
0.0
 10
148.411193047614
 20
-80.47355984954189
 30
0.0
 10
143.9340330823705
 20
-75.99642141614511
 30
0.0
 10
138.4112005099664
 20
-75.99642141614511
 30
0.0
  0
SPLINE
  5
B0
330
1F
100
AcDbEntity
  8
LAYER_1
 62
   250
100
AcDbSpline
210
0.0
220
0.0
230
1.0
 70
    11
 71
     3
 72
    17
 73
    13
 74
     0
 42
0.0000000001
 43
0.0000000001
 12
1.0
 22
0.0
 32
0.0
 13
1.0
 23
0.0
 33
0.0
 40
0.0
 40
0.0
 40
0.0
 40
0.0
 40
1.0
 40
1.0
 40
1.0
 40
2.0
 40
2.0
 40
2.0
 40
3.0
 40
3.0
 40
3.0
 40
4.0
 40
4.0
 40
4.0
 40
4.0
 10
138.4112005099664
 20
-88.49641208820458
 30
0.0
 10
137.0304708350186
 20
-88.49641208820458
 30
0.0
 10
135.9112023755546
 20
-87.37712209689369
 30
0.0
 10
135.9112023755546
 20
-85.99641395379268
 30
0.0
 10
135.9112023755546
 20
-84.61570581069168
 30
0.0
 10
137.0304708350186
 20
-83.49641581938079
 30
0.0
 10
138.4112005099664
 20
-83.49641581938079
 30
0.0
 10
139.7919086530674
 20
-83.49641581938079
 30
0.0
 10
140.9111986443783
 20
-84.61570581069168
 30
0.0
 10
140.9111986443783
 20
-85.99641395379268
 30
0.0
 10
140.9111986443783
 20
-87.37712209689369
 30
0.0
 10
139.7919086530674
 20
-88.49641208820458
 30
0.0
 10
138.4112005099664
 20
-88.49641208820458
 30
0.0
  0
SPLINE
  5
B1
330
1F
100
AcDbEntity
  8
LAYER_1
 62
   250
100
AcDbSpline
210
0.0
220
0.0
230
1.0
 70
    11
 71
     3
 72
    17
 73
    13
 74
     0
 42
0.0000000001
 43
0.0000000001
 12
1.0
 22
0.0
 32
0.0
 13
1.0
 23
0.0
 33
0.0
 40
0.0
 40
0.0
 40
0.0
 40
0.0
 40
1.0
 40
1.0
 40
1.0
 40
2.0
 40
2.0
 40
2.0
 40
3.0
 40
3.0
 40
3.0
 40
4.0
 40
4.0
 40
4.0
 40
4.0
 10
162.9917576276413
 20
-75.99642141614511
 30
0.0
 10
157.4689035233905
 20
-75.99642141614511
 30
0.0
 10
152.9917435581469
 20
-80.47355984954189
 30
0.0
 10
152.9917435581469
 20
-85.99641395379268
 30
0.0
 10
152.9917435581469
 20
-91.51926805804348
 30
0.0
 10
157.4689035233905
 20
-95.99640649144025
 30
0.0
 10
162.9917576276413
 20
-95.99640649144025
 30
0.0
 10
168.5145902000453
 20
-95.99640649144025
 30
0.0
 10
172.9917501652889
 20
-91.51926805804348
 30
0.0
 10
172.9917501652889
 20
-85.99641395379268
 30
0.0
 10
172.9917501652889
 20
-80.47355984954189
 30
0.0
 10
168.5145902000453
 20
-75.99642141614511
 30
0.0
 10
162.9917576276413
 20
-75.99642141614511
 30
0.0
  0
SPLINE
  5
B2
330
1F
100
AcDbEntity
  8
LAYER_1
 62
   250
100
AcDbSpline
210
0.0
220
0.0
230
1.0
 70
    11
 71
     3
 72
    17
 73
    13
 74
     0
 42
0.0000000001
 43
0.0000000001
 12
1.0
 22
0.0
 32
0.0
 13
1.0
 23
0.0
 33
0.0
 40
0.0
 40
0.0
 40
0.0
 40
0.0
 40
1.0
 40
1.0
 40
1.0
 40
2.0
 40
2.0
 40
2.0
 40
3.0
 40
3.0
 40
3.0
 40
4.0
 40
4.0
 40
4.0
 40
4.0
 10
162.9917576276413
 20
-88.49641208820458
 30
0.0
 10
161.6110279526935
 20
-88.49641208820458
 30
0.0
 10
160.4917594932294
 20
-87.37712209689369
 30
0.0
 10
160.4917594932294
 20
-85.99641395379268
 30
0.0
 10
160.4917594932294
 20
-84.61570581069168
 30
0.0
 10
161.6110279526935
 20
-83.49641581938079
 30
0.0
 10
162.9917576276413
 20
-83.49641581938079
 30
0.0
 10
164.3724657707423
 20
-83.49641581938079
 30
0.0
 10
165.4917557620532
 20
-84.61570581069168
 30
0.0
 10
165.4917557620532
 20
-85.99641395379268
 30
0.0
 10
165.4917557620532
 20
-87.37712209689369
 30
0.0
 10
164.3724657707423
 20
-88.49641208820458
 30
0.0
 10
162.9917576276413
 20
-88.49641208820458
 30
0.0
  0
SPLINE
  5
B3
330
1F
100
AcDbEntity
  8
LAYER_1
 62
   250
100
AcDbSpline
210
0.0
220
0.0
230
1.0
 70
    11
 71
     3
 72
    17
 73
    13
 74
     0
 42
0.0000000001
 43
0.0000000001
 12
1.0
 22
0.0
 32
0.0
 13
1.0
 23
0.0
 33
0.0
 40
0.0
 40
0.0
 40
0.0
 40
0.0
 40
1.0
 40
1.0
 40
1.0
 40
2.0
 40
2.0
 40
2.0
 40
3.0
 40
3.0
 40
3.0
 40
4.0
 40
4.0
 40
4.0
 40
4.0
 10
206.3444731726299
 20
-18.14086587505344
 30
0.0
 10
200.8216190683791
 20
-18.14086587505344
 30
0.0
 10
196.3444591031356
 20
-22.61800430845022
 30
0.0
 10
196.3444591031356
 20
-28.14085841270101
 30
0.0
 10
196.3444591031356
 20
-33.66371251695181
 30
0.0
 10
200.8216190683791
 20
-38.14085095034859
 30
0.0
 10
206.3444731726299
 20
-38.14085095034859
 30
0.0
 10
211.8673057450339
 20
-38.14085095034859
 30
0.0
 10
216.3444657102775
 20
-33.66371251695181
 30
0.0
 10
216.3444657102775
 20
-28.14085841270101
 30
0.0
 10
216.3444657102775
 20
-22.61800430845022
 30
0.0
 10
211.8673057450339
 20
-18.14086587505344
 30
0.0
 10
206.3444731726299
 20
-18.14086587505344
 30
0.0
  0
SPLINE
  5
B4
330
1F
100
AcDbEntity
  8
LAYER_1
 62
   250
100
AcDbSpline
210
0.0
220
0.0
230
1.0
 70
    11
 71
     3
 72
    17
 73
    13
 74
     0
 42
0.0000000001
 43
0.0000000001
 12
1.0
 22
0.0
 32
0.0
 13
1.0
 23
0.0
 33
0.0
 40
0.0
 40
0.0
 40
0.0
 40
0.0
 40
1.0
 40
1.0
 40
1.0
 40
2.0
 40
2.0
 40
2.0
 40
3.0
 40
3.0
 40
3.0
 40
4.0
 40
4.0
 40
4.0
 40
4.0
 10
206.3444731726299
 20
-30.64085654711291
 30
0.0
 10
204.9637434976821
 20
-30.64085654711291
 30
0.0
 10
203.844475038218
 20
-29.52156655580202
 30
0.0
 10
203.844475038218
 20
-28.14085841270101
 30
0.0
 10
203.844475038218
 20
-26.76015026960001
 30
0.0
 10
204.9637434976821
 20
-25.64086027828912
 30
0.0
 10
206.3444731726299
 20
-25.64086027828912
 30
0.0
 10
207.7251813157309
 20
-25.64086027828912
 30
0.0
 10
208.8444713070418
 20
-26.76015026960001
 30
0.0
 10
208.8444713070418
 20
-28.14085841270101
 30
0.0
 10
208.8444713070418
 20
-29.52156655580202
 30
0.0
 10
207.7251813157309
 20
-30.64085654711291
 30
0.0
 10
206.3444731726299
 20
-30.64085654711291
 30
0.0
  0
POLYLINE
  5
B5
330
1F
100
AcDbEntity
  8
LAYER_1
 62
   250
100
AcDb2dPolyline
 66
     1
 10
0.0
 20
0.0
 30
0.0
  0
VERTEX
  5
B6
330
B5
100
AcDbEntity
  8
LAYER_1
 62
   250
100
AcDbVertex
100
AcDb2dVertex
 10
316.5035491152101
 20
-3.664397344733414
 30
0.0
  0
VERTEX
  5
B7
330
B5
100
AcDbEntity
  8
LAYER_1
 62
   250
100
AcDbVertex
100
AcDb2dVertex
 10
234.5035586300677
 20
-3.664397344733414
 30
0.0
  0
VERTEX
  5
B8
330
B5
100
AcDbEntity
  8
LAYER_1
 62
   250
100
AcDbVertex
100
AcDb2dVertex
 10
234.5035586300677
 20
-25.13662244380329
 30
0.0
  0
VERTEX
  5
B9
330
B5
100
AcDbEntity
  8
LAYER_1
 62
   250
100
AcDbVertex
100
AcDb2dVertex
 10
230.5035443895312
 20
-25.13662244380329
 30
0.0
  0
VERTEX
  5
BA
330
B5
100
AcDbEntity
  8
LAYER_1
 62
   250
100
AcDbVertex
100
AcDb2dVertex
 10
230.5035443895312
 20
-75.13662819573408
 30
0.0
  0
VERTEX
  5
BB
330
B5
100
AcDbEntity
  8
LAYER_1
 62
   250
100
AcDbVertex
100
AcDb2dVertex
 10
234.5035586300677
 20
-75.13662819573408
 30
0.0
  0
VERTEX
  5
BC
330
B5
100
AcDbEntity
  8
LAYER_1
 62
   250
100
AcDbVertex
100
AcDb2dVertex
 10
234.5035586300677
 20
-96.60885329480395
 30
0.0
  0
VERTEX
  5
BD
330
B5
100
AcDbEntity
  8
LAYER_1
 62
   250
100
AcDbVertex
100
AcDb2dVertex
 10
316.5035491152101
 20
-96.60885329480395
 30
0.0
  0
SEQEND
  5
BE
330
B5
100
AcDbEntity
  8
LAYER_1
 62
   250
  0
SPLINE
  5
BF
330
1F
100
AcDbEntity
  8
LAYER_1
 62
   250
100
AcDbSpline
210
0.0
220
0.0
230
1.0
 70
    11
 71
     3
 72
    17
 73
    13
 74
     0
 42
0.0000000001
 43
0.0000000001
 12
1.0
 22
0.0
 32
0.0
 13
1.0
 23
0.0
 33
0.0
 40
0.0
 40
0.0
 40
0.0
 40
0.0
 40
1.0
 40
1.0
 40
1.0
 40
2.0
 40
2.0
 40
2.0
 40
3.0
 40
3.0
 40
3.0
 40
4.0
 40
4.0
 40
4.0
 40
4.0
 10
254.70076465597
 20
-50.13664685161515
 30
0.0
 10
254.70076465597
 20
-48.20364683853503
 30
0.0
 10
256.2677663374359
 20
-46.63664515706914
 30
0.0
 10
258.200766350516
 20
-46.63664515706914
 30
0.0
 10
260.1337663635961
 20
-46.63664515706914
 30
0.0
 10
261.700768045062
 20
-48.20364683853503
 30
0.0
 10
261.700768045062
 20
-50.13664685161515
 30
0.0
 10
261.700768045062
 20
-52.06962533284848
 30
0.0
 10
260.1337663635961
 20
-53.63662701431437
 30
0.0
 10
258.200766350516
 20
-53.63662701431437
 30
0.0
 10
256.2677663374359
 20
-53.63662701431437
 30
0.0
 10
254.70076465597
 20
-52.06962533284848
 30
0.0
 10
254.70076465597
 20
-50.13664685161515
 30
0.0
  0
POLYLINE
  5
C0
330
1F
100
AcDbEntity
  8
LAYER_1
 62
   250
100
AcDb2dPolyline
 66
     1
 10
0.0
 20
0.0
 30
0.0
  0
VERTEX
  5
C1
330
C0
100
AcDbEntity
  8
LAYER_1
 62
   250
100
AcDbVertex
100
AcDb2dVertex
 10
516.5035505910889
 20
-96.60886406072734
 30
0.0
  0
VERTEX
  5
C2
330
C0
100
AcDbEntity
  8
LAYER_1
 62
   250
100
AcDbVertex
100
AcDb2dVertex
 10
598.5035410762314
 20
-96.60886406072734
 30
0.0
  0
VERTEX
  5
C3
330
C0
100
AcDbEntity
  8
LAYER_1
 62
   250
100
AcDbVertex
100
AcDb2dVertex
 10
598.5035410762314
 20
-75.13663896165747
 30
0.0
  0
VERTEX
  5
C4
330
C0
100
AcDbEntity
  8
LAYER_1
 62
   250
100
AcDbVertex
100
AcDb2dVertex
 10
602.5035553167678
 20
-75.13663896165747
 30
0.0
  0
VERTEX
  5
C5
330
C0
100
AcDbEntity
  8
LAYER_1
 62
   250
100
AcDbVertex
100
AcDb2dVertex
 10
602.5035553167678
 20
-25.13663320972604
 30
0.0
  0
VERTEX
  5
C6
330
C0
100
AcDbEntity
  8
LAYER_1
 62
   250
100
AcDbVertex
100
AcDb2dVertex
 10
598.5035410762314
 20
-25.13663320972604
 30
0.0
  0
VERTEX
  5
C7
330
C0
100
AcDbEntity
  8
LAYER_1
 62
   250
100
AcDbVertex
100
AcDb2dVertex
 10
598.5035410762314
 20
-3.664408110656485
 30
0.0
  0
VERTEX
  5
C8
330
C0
100
AcDbEntity
  8
LAYER_1
 62
   250
100
AcDbVertex
100
AcDb2dVertex
 10
516.5035505910889
 20
-3.664408110656485
 30
0.0
  0
SEQEND
  5
C9
330
C0
100
AcDbEntity
  8
LAYER_1
 62
   250
  0
SPLINE
  5
CA
330
1F
100
AcDbEntity
  8
LAYER_1
 62
   250
100
AcDbSpline
210
0.0
220
0.0
230
1.0
 70
    11
 71
     3
 72
    17
 73
    13
 74
     0
 42
0.0000000001
 43
0.0000000001
 12
1.0
 22
0.0
 32
0.0
 13
1.0
 23
0.0
 33
0.0
 40
0.0
 40
0.0
 40
0.0
 40
0.0
 40
1.0
 40
1.0
 40
1.0
 40
2.0
 40
2.0
 40
2.0
 40
3.0
 40
3.0
 40
3.0
 40
4.0
 40
4.0
 40
4.0
 40
4.0
 10
561.0035475282061
 20
-50.13663608569176
 30
0.0
 10
561.0035475282061
 20
-52.06963609877187
 30
0.0
 10
559.4365458467403
 20
-53.63663778023776
 30
0.0
 10
557.5035458336602
 20
-53.63663778023776
 30
0.0
 10
555.57054582058
 20
-53.63663778023776
 30
0.0
 10
554.0035441391142
 20
-52.06963609877187
 30
0.0
 10
554.0035441391142
 20
-50.13663608569176
 30
0.0
 10
554.0035441391142
 20
-48.20365760445842
 30
0.0
 10
555.57054582058
 20
-46.63665592299253
 30
0.0
 10
557.5035458336602
 20
-46.63665592299253
 30
0.0
 10
559.4365458467403
 20
-46.63665592299253
 30
0.0
 10
561.0035475282061
 20
-48.20365760445842
 30
0.0
 10
561.0035475282061
 20
-50.13663608569176
 30
0.0
  0
POLYLINE
  5
CB
330
1F
100
AcDbEntity
  8
LAYER_1
 62
   250
100
AcDb2dPolyline
 66
     1
 10
0.0
 20
0.0
 30
0.0
  0
VERTEX
  5
CC
330
CB
100
AcDbEntity
  8
LAYER_1
 62
   250
100
AcDbVertex
100
AcDb2dVertex
 10
516.5035505910889
 20
-25.13661167787926
 30
0.0
  0
VERTEX
  5
CD
330
CB
100
AcDbEntity
  8
LAYER_1
 62
   250
100
AcDbVertex
100
AcDb2dVertex
 10
516.5035505910889
 20
-3.664408110656485
 30
0.0
  0
VERTEX
  5
CE
330
CB
100
AcDbEntity
  8
LAYER_1
 62
   250
100
AcDbVertex
100
AcDb2dVertex
 10
316.5035491152101
 20
-3.664408110656485
 30
0.0
  0
VERTEX
  5
CF
330
CB
100
AcDbEntity
  8
LAYER_1
 62
   250
100
AcDbVertex
100
AcDb2dVertex
 10
316.5035491152101
 20
-14.69904894991171
 30
0.0
  0
VERTEX
  5
D0
330
CB
100
AcDbEntity
  8
LAYER_1
 62
   250
100
AcDbVertex
100
AcDb2dVertex
 10
316.5035491152101
 20
-20.84169726380542
 30
0.0
  0
VERTEX
  5
D1
330
CB
100
AcDbEntity
  8
LAYER_1
 62
   250
100
AcDbVertex
100
AcDb2dVertex
 10
316.5035491152101
 20
-25.13661167787926
 30
0.0
  0
VERTEX
  5
D2
330
CB
100
AcDbEntity
  8
LAYER_1
 62
   250
100
AcDbVertex
100
AcDb2dVertex
 10
320.5035418238998
 20
-25.13661167787926
 30
0.0
  0
VERTEX
  5
D3
330
CB
100
AcDbEntity
  8
LAYER_1
 62
   250
100
AcDbVertex
100
AcDb2dVertex
 10
320.5035418238998
 20
-75.13661742981068
 30
0.0
  0
VERTEX
  5
D4
330
CB
100
AcDbEntity
  8
LAYER_1
 62
   250
100
AcDbVertex
100
AcDb2dVertex
 10
316.5035491152101
 20
-75.13661742981068
 30
0.0
  0
VERTEX
  5
D5
330
CB
100
AcDbEntity
  8
LAYER_1
 62
   250
100
AcDbVertex
100
AcDb2dVertex
 10
316.5035491152101
 20
-79.84535240720338
 30
0.0
  0
VERTEX
  5
D6
330
CB
100
AcDbEntity
  8
LAYER_1
 62
   250
100
AcDbVertex
100
AcDb2dVertex
 10
316.5035491152101
 20
-96.60884252888056
 30
0.0
  0
VERTEX
  5
D7
330
CB
100
AcDbEntity
  8
LAYER_1
 62
   250
100
AcDbVertex
100
AcDb2dVertex
 10
516.5035505910889
 20
-96.60884252888056
 30
0.0
  0
VERTEX
  5
D8
330
CB
100
AcDbEntity
  8
LAYER_1
 62
   250
100
AcDbVertex
100
AcDb2dVertex
 10
516.5035505910889
 20
-75.13661742981068
 30
0.0
  0
VERTEX
  5
D9
330
CB
100
AcDbEntity
  8
LAYER_1
 62
   250
100
AcDbVertex
100
AcDb2dVertex
 10
512.5035578823993
 20
-75.13661742981068
 30
0.0
  0
VERTEX
  5
DA
330
CB
100
AcDbEntity
  8
LAYER_1
 62
   250
100
AcDbVertex
100
AcDb2dVertex
 10
512.5035578823993
 20
-25.13661167787926
 30
0.0
  0
VERTEX
  5
DB
330
CB
100
AcDbEntity
  8
LAYER_1
 62
   250
100
AcDbVertex
100
AcDb2dVertex
 10
516.5035505910889
 20
-25.13661167787926
 30
0.0
  0
SEQEND
  5
DC
330
CB
100
AcDbEntity
  8
LAYER_1
 62
   250
  0
POLYLINE
  5
DD
330
1F
100
AcDbEntity
  8
LAYER_1
 62
   250
100
AcDb2dPolyline
 66
     1
 10
0.0
 20
0.0
 30
0.0
  0
VERTEX
  5
DE
330
DD
100
AcDbEntity
  8
LAYER_1
 62
   250
100
AcDbVertex
100
AcDb2dVertex
 10
598.5035410762314
 20
-96.60884252888056
 30
0.0
  0
VERTEX
  5
DF
330
DD
100
AcDbEntity
  8
LAYER_1
 62
   250
100
AcDbVertex
100
AcDb2dVertex
 10
798.5035425521103
 20
-96.60884252888056
 30
0.0
  0
VERTEX
  5
E0
330
DD
100
AcDbEntity
  8
LAYER_1
 62
   250
100
AcDbVertex
100
AcDb2dVertex
 10
798.5035425521103
 20
-75.13661742981068
 30
0.0
  0
VERTEX
  5
E1
330
DD
100
AcDbEntity
  8
LAYER_1
 62
   250
100
AcDbVertex
100
AcDb2dVertex
 10
794.5035498434206
 20
-75.13661742981068
 30
0.0
  0
VERTEX
  5
E2
330
DD
100
AcDbEntity
  8
LAYER_1
 62
   250
100
AcDbVertex
100
AcDb2dVertex
 10
794.5035498434206
 20
-25.13661167787958
 30
0.0
  0
VERTEX
  5
E3
330
DD
100
AcDbEntity
  8
LAYER_1
 62
   250
100
AcDbVertex
100
AcDb2dVertex
 10
798.5035425521103
 20
-25.13661167787958
 30
0.0
  0
VERTEX
  5
E4
330
DD
100
AcDbEntity
  8
LAYER_1
 62
   250
100
AcDbVertex
100
AcDb2dVertex
 10
798.5035425521103
 20
-3.664408110656485
 30
0.0
  0
VERTEX
  5
E5
330
DD
100
AcDbEntity
  8
LAYER_1
 62
   250
100
AcDbVertex
100
AcDb2dVertex
 10
598.5035410762314
 20
-3.664408110656485
 30
0.0
  0
SEQEND
  5
E6
330
DD
100
AcDbEntity
  8
LAYER_1
 62
   250
  0
SPLINE
  5
E7
330
1F
100
AcDbEntity
  8
LAYER_1
 62
   250
100
AcDbSpline
210
0.0
220
0.0
230
1.0
 70
    11
 71
     3
 72
    17
 73
    13
 74
     0
 42
0.0000000001
 43
0.0000000001
 12
1.0
 22
0.0
 32
0.0
 13
1.0
 23
0.0
 33
0.0
 40
0.0
 40
0.0
 40
0.0
 40
0.0
 40
1.0
 40
1.0
 40
1.0
 40
2.0
 40
2.0
 40
2.0
 40
3.0
 40
3.0
 40
3.0
 40
4.0
 40
4.0
 40
4.0
 40
4.0
 10
629.7777733817809
 20
-55.13661082266876
 30
0.0
 10
627.016335563732
 20
-55.13661082266876
 30
0.0
 10
624.7777771129571
 20
-52.89805237189376
 30
0.0
 10
624.7777771129571
 20
-50.13661455384497
 30
0.0
 10
624.7777771129571
 20
-47.37519826764296
 30
0.0
 10
627.016335563732
 20
-45.13661828502183
 30
0.0
 10
629.7777733817809
 20
-45.13661828502183
 30
0.0
 10
632.5391896679829
 20
-45.13661828502183
 30
0.0
 10
634.7777696506047
 20
-47.37519826764296
 30
0.0
 10
634.7777696506047
 20
-50.13661455384497
 30
0.0
 10
634.7777696506047
 20
-52.89805237189376
 30
0.0
 10
632.5391896679829
 20
-55.13661082266876
 30
0.0
 10
629.7777733817809
 20
-55.13661082266876
 30
0.0
  0
SPLINE
  5
E8
330
1F
100
AcDbEntity
  8
LAYER_1
 62
   250
100
AcDbSpline
210
0.0
220
0.0
230
1.0
 70
    11
 71
     3
 72
    17
 73
    13
 74
     0
 42
0.0000000001
 43
0.0000000001
 12
1.0
 22
0.0
 32
0.0
 13
1.0
 23
0.0
 33
0.0
 40
0.0
 40
0.0
 40
0.0
 40
0.0
 40
1.0
 40
1.0
 40
1.0
 40
2.0
 40
2.0
 40
2.0
 40
3.0
 40
3.0
 40
3.0
 40
4.0
 40
4.0
 40
4.0
 40
4.0
 10
746.3052859665812
 20
-55.13661082266876
 30
0.0
 10
743.5438696803792
 20
-55.13661082266876
 30
0.0
 10
741.3052896977575
 20
-52.89805237189376
 30
0.0
 10
741.3052896977575
 20
-50.13661455384497
 30
0.0
 10
741.3052896977575
 20
-47.37519826764296
 30
0.0
 10
743.5438696803792
 20
-45.13661828502183
 30
0.0
 10
746.3052859665812
 20
-45.13661828502183
 30
0.0
 10
749.0667237846301
 20
-45.13661828502183
 30
0.0
 10
751.3053037672519
 20
-47.37519826764296
 30
0.0
 10
751.3053037672519
 20
-50.13661455384497
 30
0.0
 10
751.3053037672519
 20
-52.89805237189376
 30
0.0
 10
749.0667237846301
 20
-55.13661082266876
 30
0.0
 10
746.3052859665812
 20
-55.13661082266876
 30
0.0
  0
ENDSEC
  0
SECTION
  2
OBJECTS
  0
DICTIONARY
  5
C
330
0
100
AcDbDictionary
  3
ACAD_GROUP
350
D
  3
ACAD_LAYOUT
350
1A
  3
ACAD_MATERIAL
350
3B
  3
ACAD_MLEADERSTYLE
350
EB
  3
ACAD_MLINESTYLE
350
17
  3
ACAD_PLOTSETTINGS
350
19
  3
ACAD_VISUALSTYLE
350
2A
  3
ACDBVARIABLEDICTIONARY
350
E9
1001
ACAD
1000
TREAT_AS_HARD
1070
     0
  0
DICTIONARY
  5
D
102
{ACAD_REACTORS
330
C
102
}
330
C
100
AcDbDictionary
1001
ACAD
1000
TREAT_AS_HARD
1070
     0
  0
DICTIONARY
  5
1A
102
{ACAD_REACTORS
330
C
102
}
330
C
100
AcDbDictionary
1001
ACAD
1000
TREAT_AS_HARD
1070
     0
  0
DICTIONARY
  5
3B
102
{ACAD_REACTORS
330
C
102
}
330
C
100
AcDbDictionary
  3
BYBLOCK
350
3D
  3
BYLAYER
350
3C
  3
GLOBAL
350
3E
1001
ACAD
1000
TREAT_AS_HARD
1070
     0
  0
DICTIONARY
  5
EB
102
{ACAD_REACTORS
330
C
102
}
330
C
100
AcDbDictionary
1001
ACAD
1000
TREAT_AS_HARD
1070
     0
  0
DICTIONARY
  5
17
102
{ACAD_REACTORS
330
C
102
}
330
C
100
AcDbDictionary
  3
STANDARD
350
18
1001
ACAD
1000
TREAT_AS_HARD
1070
     0
  0
DICTIONARY
  5
19
102
{ACAD_REACTORS
330
C
102
}
330
C
100
AcDbDictionary
1001
ACAD
1000
TREAT_AS_HARD
1070
     0
  0
DICTIONARY
  5
2A
102
{ACAD_REACTORS
330
C
102
}
330
C
100
AcDbDictionary
  3
2DWIREFRAME
350
2F
  3
3D_HIDDEN
350
31
  3
3DWIREFRAME
350
30
  3
BASIC
350
32
  3
BRIGHTEN
350
36
  3
COLORCHANGE
350
3A
  3
CONCEPTUAL
350
34
  3
DIM
350
35
  3
FACEPATTERN
350
39
  3
FLAT
350
2B
  3
FLATWITHEDGES
350
2C
  3
GOURAUD
350
2D
  3
GOURAUDWITHEDGES
350
2E
  3
LINEPATTERN
350
38
  3
REALISTIC
350
33
  3
THICKEN
350
37
1001
ACAD
1000
TREAT_AS_HARD
1070
     0
  0
DICTIONARY
  5
E9
102
{ACAD_REACTORS
330
C
102
}
330
C
100
AcDbDictionary
  3
DIMASSOC
350
EC
  3
HIDETEXT
350
ED
1001
ACAD
1000
TREAT_AS_HARD
1070
     0
  0
MATERIAL
  5
3D
102
{ACAD_REACTORS
330
3B
102
}
102
{ACAD_XDICTIONARY
360
F0
102
}
330
3B
100
AcDbMaterial
  1
ByBlock
  0
MATERIAL
  5
3C
102
{ACAD_REACTORS
330
3B
102
}
102
{ACAD_XDICTIONARY
360
EE
102
}
330
3B
100
AcDbMaterial
  1
ByLayer
  0
MATERIAL
  5
3E
102
{ACAD_REACTORS
330
3B
102
}
102
{ACAD_XDICTIONARY
360
F2
102
}
330
3B
100
AcDbMaterial
  1
Global
  0
MLINESTYLE
  5
18
102
{ACAD_REACTORS
330
17
102
}
330
17
100
AcDbMlineStyle
  2
Standard
 70
     0
  3

 62
   256
 51
90.0
 52
90.0
 71
     2
 49
0.5
 62
   256
  6
BYLAYER
 49
-0.5
 62
   256
  6
BYLAYER
  0
ACAD_PROXY_OBJECT
  5
2F
102
{ACAD_REACTORS
330
2A
102
}
330
2A
100
AcDbZombieObject
 90
      499
 91
      501
 93
      436
310
42CC9915DA5C99599C985B595049028333333333333E3BF0000000000000FB0107901411070040501600405405064090741402480A0340
1001
ACAD
1000
AcDbSavedByObjectVersion
1070
     0
  0
ACAD_PROXY_OBJECT
  5
31
102
{ACAD_REACTORS
330
2A
102
}
330
2A
100
AcDbZombieObject
 90
      499
 91
      501
 93
      500
310
424CD108121A5919195B90640502408333333333333E3BF0000000000000FB01079024090700405020000000000001110200405405064090740C02480A0340
1001
ACAD
1000
AcDbSavedByObjectVersion
1070
     0
  0
ACAD_PROXY_OBJECT
  5
30
102
{ACAD_REACTORS
330
2A
102
}
330
2A
100
AcDbZombieObject
 90
      499
 91
      501
 93
      436
310
42CCD915DA5C99599C985B595059028333333333333E3BF0000000000000FB0107901411070040501600405405064090741402480A0340
1001
ACAD
1000
AcDbSavedByObjectVersion
1070
     0
  0
ACAD_PROXY_OBJECT
  5
32
102
{ACAD_REACTORS
330
2A
102
}
330
2A
100
AcDbZombieObject
 90
      499
 91
      501
 93
      388
310
4150985CDA58D07406404333333333333E3BF0000000000000FB0107A41107004050150841D405064090741402480A0350
1001
ACAD
1000
AcDbSavedByObjectVersion
1070
     0
  0
ACAD_PROXY_OBJECT
  5
36
102
{ACAD_REACTORS
330
2A
102
}
330
2A
100
AcDbZombieObject
 90
      499
 91
      501
 93
      428
310
42109C9A59DA1D195B90C409028333333333333E3BF0000000000000FB010790141107004050150841D405064090741402480A029950
1001
ACAD
1000
AcDbSavedByObjectVersion
1070
     0
  0
ACAD_PROXY_OBJECT
  5
3A
102
{ACAD_REACTORS
330
2A
102
}
330
2A
100
AcDbZombieObject
 90
      499
 91
      501
 93
      452
310
42D0DBDB1BDC90DA185B99D95104090240C333333333333E3BF0000000000000FB0108901411070040501508421405064090741402480A0350
1001
ACAD
1000
AcDbSavedByObjectVersion
1070
     0
  0
ACAD_PROXY_OBJECT
  5
34
102
{ACAD_REACTORS
330
2A
102
}
330
2A
100
AcDbZombieObject
 90
      499
 91
      501
 93
      500
310
4290DBDB98D95C1D1D585B10940D028333333333333E3BF0000000000000FB0107902409070040501000000000000111010841D405064090740C02480A0340
1001
ACAD
1000
AcDbSavedByObjectVersion
1070
     0
  0
ACAD_PROXY_OBJECT
  5
35
102
{ACAD_REACTORS
330
2A
102
}
330
2A
100
AcDbZombieObject
 90
      499
 91
      501
 93
      412
310
40D11A5B50B409028333333333333E3BF0000000000000FB010790141107004050150841D405064090741402480A02677FFFFFD0
1001
ACAD
1000
AcDbSavedByObjectVersion
1070
     0
  0
ACAD_PROXY_OBJECT
  5
39
102
{ACAD_REACTORS
330
2A
102
}
330
2A
100
AcDbZombieObject
 90
      499
 91
      501
 93
      444
310
42D19858D95C185D1D195C9B90F409028333333333333E3BF0000000000000FB010790141107004050150841D405064090741402480A0350
1001
ACAD
1000
AcDbSavedByObjectVersion
1070
     0
  0
ACAD_PROXY_OBJECT
  5
2B
102
{ACAD_REACTORS
330
2A
102
}
330
2A
100
AcDbZombieObject
 90
      499
 91
      501
 93
      388
310
41119B185D240901404333333333333E3BF0000000000000F9010740A41107004050150841D405064090741402480A1B50
1001
ACAD
1000
AcDbSavedByObjectVersion
1070
     0
  0
ACAD_PROXY_OBJECT
  5
2C
102
{ACAD_REACTORS
330
2A
102
}
330
2A
100
AcDbZombieObject
 90
      499
 91
      501
 93
      476
310
43519B185D15DA5D1A115919D95CD0140901404333333333333E3BF0000000000000F9010740901411070040501600405405064090741402480A1B50
1001
ACAD
1000
AcDbSavedByObjectVersion
1070
     0
  0
ACAD_PROXY_OBJECT
  5
2D
102
{ACAD_REACTORS
330
2A
102
}
330
2A
100
AcDbZombieObject
 90
      499
 91
      501
 93
      412
310
41D1DBDD5C985D5910240902404333333333333E3BF0000000000000F9010740A411070040501641D405064090741402480A1B50
1001
ACAD
1000
AcDbSavedByObjectVersion
1070
     0
  0
ACAD_PROXY_OBJECT
  5
2E
102
{ACAD_REACTORS
330
2A
102
}
330
2A
100
AcDbZombieObject
 90
      499
 91
      501
 93
      500
310
4411DBDD5C985D5915DA5D1A115919D95CD0340902404333333333333E3BF0000000000000F9010740901411070040501600405405064090741402480A1B50
1001
ACAD
1000
AcDbSavedByObjectVersion
1070
     0
  0
ACAD_PROXY_OBJECT
  5
38
102
{ACAD_REACTORS
330
2A
102
}
330
2A
100
AcDbZombieObject
 90
      499
 91
      501
 93
      444
310
42D31A5B995C185D1D195C9B90E409028333333333333E3BF0000000000000FB010790141107004050750841D405064090741402483A0350
1001
ACAD
1000
AcDbSavedByObjectVersion
1070
     0
  0
ACAD_PROXY_OBJECT
  5
33
102
{ACAD_REACTORS
330
2A
102
}
330
2A
100
AcDbZombieObject
 90
      499
 91
      501
 93
      420
310
425499585B1A5CDD1A58D08409028333333333333E3BF0000000000000FB01079019070040501508421405064090741402480A1B40
1001
ACAD
1000
AcDbSavedByObjectVersion
1070
     0
  0
ACAD_PROXY_OBJECT
  5
37
102
{ACAD_REACTORS
330
2A
102
}
330
2A
100
AcDbZombieObject
 90
      499
 91
      501
 93
      412
310
41D51A1A58DAD95B90D409028333333333333E3BF0000000000000FB010790141107004050150C41D405064090741402480A0350
1001
ACAD
1000
AcDbSavedByObjectVersion
1070
     0
  0
DICTIONARYVAR
  5
EC
102
{ACAD_REACTORS
330
E9
102
}
330
E9
100
DictionaryVariables
280
     0
  1
2
  0
DICTIONARYVAR
  5
ED
102
{ACAD_REACTORS
330
E9
102
}
330
E9
100
DictionaryVariables
280
     0
  1
1
  0
DICTIONARY
  5
F0
330
3D
100
AcDbDictionary
  3
ACAD_XREC_ROUNDTRIP
360
F1
1001
ACAD
1000
TREAT_AS_HARD
1070
     1
  0
DICTIONARY
  5
EE
330
3C
100
AcDbDictionary
  3
ACAD_XREC_ROUNDTRIP
360
EF
1001
ACAD
1000
TREAT_AS_HARD
1070
     1
  0
DICTIONARY
  5
F2
330
3E
100
AcDbDictionary
  3
ACAD_XREC_ROUNDTRIP
360
F3
1001
ACAD
1000
TREAT_AS_HARD
1070
     1
  0
XRECORD
  5
F1
102
{ACAD_REACTORS
330
F0
102
}
330
F0
100
AcDbXrecord
102
MATERIAL
148
0.0
149
0.0
149
0.0
 93
        0
 94
      127
282
     0
 72
     1
 77
     1
171
     1
175
     1
179
     1
273
     0
  0
XRECORD
  5
EF
102
{ACAD_REACTORS
330
EE
102
}
330
EE
100
AcDbXrecord
102
MATERIAL
148
0.0
149
0.0
149
0.0
 93
        0
 94
      127
282
     0
 72
     1
 77
     1
171
     1
175
     1
179
     1
273
     0
  0
XRECORD
  5
F3
102
{ACAD_REACTORS
330
F2
102
}
330
F2
100
AcDbXrecord
102
MATERIAL
148
0.0
149
0.0
149
0.0
 93
        0
 94
      127
282
     0
 72
     1
 77
     1
171
     1
175
     1
179
     1
273
     0
  0
ENDSEC
  0
EOF
