  0
SECTION
  2
HEADER
  9
$ACADVER
  1
AC1012
  9
$DWGCODEPAGE
  3
ansi_936
  9
$INSBASE
 10
0.0
 20
0.0
 30
0.0
  9
$EXTMIN
 10
1.000000000000000E+20
 20
1.000000000000000E+20
 30
1.000000000000000E+20
  9
$EXTMAX
 10
-1.000000000000000E+20
 20
-1.000000000000000E+20
 30
-1.000000000000000E+20
  9
$LIMMIN
 10
0.0
 20
0.0
  9
$LIMMAX
 10
12.0
 20
9.0
  9
$ORTHOMODE
 70
     0
  9
$REGENMODE
 70
     1
  9
$FILLMODE
 70
     1
  9
$QTEXTMODE
 70
     0
  9
$MIRRTEXT
 70
     1
  9
$DRAGMODE
 70
     2
  9
$LTSCALE
 40
1.0
  9
$OSMODE
 70
    37
  9
$ATTMODE
 70
     1
  9
$TEXTSIZE
 40
0.2
  9
$TRACEWID
 40
0.05
  9
$TEXTSTYLE
  7
STANDARD
  9
$CLAYER
  8
0
  9
$CELTYPE
  6
BYLAYER
  9
$CECOLOR
 62
   256
  9
$CELTSCALE
 40
1.0
  9
$DELOBJ
 70
     1
  9
$DISPSILH
 70
     0
  9
$DIMSCALE
 40
1.0
  9
$DIMASZ
 40
0.18
  9
$DIMEXO
 40
0.0625
  9
$DIMDLI
 40
0.38
  9
$DIMRND
 40
0.0
  9
$DIMDLE
 40
0.0
  9
$DIMEXE
 40
0.18
  9
$DIMTP
 40
0.0
  9
$DIMTM
 40
0.0
  9
$DIMTXT
 40
0.18
  9
$DIMCEN
 40
0.09
  9
$DIMTSZ
 40
0.0
  9
$DIMTOL
 70
     0
  9
$DIMLIM
 70
     0
  9
$DIMTIH
 70
     1
  9
$DIMTOH
 70
     1
  9
$DIMSE1
 70
     0
  9
$DIMSE2
 70
     0
  9
$DIMTAD
 70
     0
  9
$DIMZIN
 70
     0
  9
$DIMBLK
  1

  9
$DIMASO
 70
     1
  9
$DIMSHO
 70
     1
  9
$DIMPOST
  1

  9
$DIMAPOST
  1

  9
$DIMALT
 70
     0
  9
$DIMALTD
 70
     2
  9
$DIMALTF
 40
25.4
  9
$DIMLFAC
 40
1.0
  9
$DIMTOFL
 70
     0
  9
$DIMTVP
 40
0.0
  9
$DIMTIX
 70
     0
  9
$DIMSOXD
 70
     0
  9
$DIMSAH
 70
     0
  9
$DIMBLK1
  1

  9
$DIMBLK2
  1

  9
$DIMSTYLE
  2
STANDARD
  9
$DIMCLRD
 70
     0
  9
$DIMCLRE
 70
     0
  9
$DIMCLRT
 70
     0
  9
$DIMTFAC
 40
1.0
  9
$DIMGAP
 40
0.09
  9
$DIMJUST
 70
     0
  9
$DIMSD1
 70
     0
  9
$DIMSD2
 70
     0
  9
$DIMTOLJ
 70
     1
  9
$DIMTZIN
 70
     0
  9
$DIMALTZ
 70
     0
  9
$DIMALTTZ
 70
     0
  9
$DIMFIT
 70
     3
  9
$DIMUPT
 70
     0
  9
$DIMUNIT
 70
     2
  9
$DIMDEC
 70
     4
  9
$DIMTDEC
 70
     4
  9
$DIMALTU
 70
     2
  9
$DIMALTTD
 70
     2
  9
$DIMTXSTY
  7
STANDARD
  9
$DIMAUNIT
 70
     0
  9
$LUNITS
 70
     2
  9
$LUPREC
 70
     4
  9
$SKETCHINC
 40
0.1
  9
$FILLETRAD
 40
0.5
  9
$AUNITS
 70
     0
  9
$AUPREC
 70
     0
  9
$MENU
  1
.
  9
$ELEVATION
 40
0.0
  9
$PELEVATION
 40
0.0
  9
$THICKNESS
 40
0.0
  9
$LIMCHECK
 70
     0
  9
$CHAMFERA
 40
0.5
  9
$CHAMFERB
 40
0.5
  9
$CHAMFERC
 40
1.0
  9
$CHAMFERD
 40
0.0
  9
$SKPOLY
 70
     0
  9
$TDCREATE
 40
2458022.459776204
  9
$TDUPDATE
 40
2458022.45977632
  9
$TDINDWG
 40
0.0000000116
  9
$TDUSRTIMER
 40
0.0000000116
  9
$USRTIMER
 70
     1
  9
$ANGBASE
 50
0.0
  9
$ANGDIR
 70
     0
  9
$PDMODE
 70
     0
  9
$PDSIZE
 40
0.0
  9
$PLINEWID
 40
0.0
  9
$COORDS
 70
     1
  9
$SPLFRAME
 70
     0
  9
$SPLINETYPE
 70
     6
  9
$SPLINESEGS
 70
     8
  9
$ATTDIA
 70
     0
  9
$ATTREQ
 70
     1
  9
$HANDLING
 70
     1
  9
$HANDSEED
  5
14E
  9
$SURFTAB1
 70
     6
  9
$SURFTAB2
 70
     6
  9
$SURFTYPE
 70
     6
  9
$SURFU
 70
     6
  9
$SURFV
 70
     6
  9
$UCSNAME
  2

  9
$UCSORG
 10
0.0
 20
0.0
 30
0.0
  9
$UCSXDIR
 10
1.0
 20
0.0
 30
0.0
  9
$UCSYDIR
 10
0.0
 20
1.0
 30
0.0
  9
$PUCSNAME
  2

  9
$PUCSORG
 10
0.0
 20
0.0
 30
0.0
  9
$PUCSXDIR
 10
1.0
 20
0.0
 30
0.0
  9
$PUCSYDIR
 10
0.0
 20
1.0
 30
0.0
  9
$USERI1
 70
     0
  9
$USERI2
 70
     0
  9
$USERI3
 70
     0
  9
$USERI4
 70
     0
  9
$USERI5
 70
     0
  9
$USERR1
 40
0.0
  9
$USERR2
 40
0.0
  9
$USERR3
 40
0.0
  9
$USERR4
 40
0.0
  9
$USERR5
 40
0.0
  9
$WORLDVIEW
 70
     1
  9
$SHADEDGE
 70
     3
  9
$SHADEDIF
 70
    70
  9
$TILEMODE
 70
     1
  9
$MAXACTVP
 70
    64
  9
$PINSBASE
 10
0.0
 20
0.0
 30
0.0
  9
$PLIMCHECK
 70
     0
  9
$PEXTMIN
 10
1.000000000000000E+20
 20
1.000000000000000E+20
 30
1.000000000000000E+20
  9
$PEXTMAX
 10
-1.000000000000000E+20
 20
-1.000000000000000E+20
 30
-1.000000000000000E+20
  9
$PLIMMIN
 10
0.0
 20
0.0
  9
$PLIMMAX
 10
12.0
 20
9.0
  9
$UNITMODE
 70
     0
  9
$VISRETAIN
 70
     1
  9
$PLINEGEN
 70
     0
  9
$PSLTSCALE
 70
     1
  9
$TREEDEPTH
 70
  3020
  9
$PICKSTYLE
 70
     1
  9
$CMLSTYLE
  2
STANDARD
  9
$CMLJUST
 70
     0
  9
$CMLSCALE
 40
1.0
  9
$SAVEIMAGES
 70
     1
  0
ENDSEC
  0
SECTION
  2
CLASSES
  0
CLASS
  1
ACDBDICTIONARYWDFLT
  2
AcDbDictionaryWithDefault
  3
ObjectDBX Classes
 90
    32768
280
     0
281
     0
  0
CLASS
  1
VISUALSTYLE
  2
AcDbVisualStyle
  3
ObjectDBX Classes
 90
     4095
280
     0
281
     0
  0
CLASS
  1
MATERIAL
  2
AcDbMaterial
  3
ObjectDBX Classes
 90
     1153
280
     0
281
     0
  0
CLASS
  1
SUN
  2
AcDbSun
  3
SCENEOE
 90
     1024
280
     0
281
     0
  0
CLASS
  1
DICTIONARYVAR
  2
AcDbDictionaryVar
  3
ObjectDBX Classes
 90
        0
280
     0
281
     0
  0
CLASS
  1
XRECORD
  2
AcDbXrecord
  3
AutoCAD 2000
 90
    32768
280
     0
281
     0
  0
CLASS
  1
LWPOLYLINE
  2
AcDbPolyline
  3
AutoCAD 2000
 90
    32768
280
     0
281
     1
  0
CLASS
  1
HATCH
  2
AcDbHatch
  3
AutoCAD 2000
 90
    32768
280
     0
281
     1
  0
CLASS
  1
ACDBPLACEHOLDER
  2
AcDbPlaceHolder
  3
ObjectDBX Classes
 90
        0
280
     0
281
     0
  0
CLASS
  1
LAYOUT
  2
AcDbLayout
  3
ObjectDBX Classes
 90
        0
280
     0
281
     0
  0
ENDSEC
  0
SECTION
  2
TABLES
  0
TABLE
  2
VPORT
  5
8
330
0
100
AcDbSymbolTable
 70
     1
  0
VPORT
  5
29
330
8
100
AcDbSymbolTableRecord
100
AcDbViewportTableRecord
  2
*ACTIVE
 70
     0
 10
0.0
 20
0.0
 11
1.0
 21
1.0
 12
0.0
 22
0.0
 13
0.0
 23
0.0
 14
0.5
 24
0.5
 15
0.5
 25
0.5
 16
0.0
 26
0.0
 36
1.0
 17
455.0004304418056
 27
-49.9991944319445
 37
0.0
 40
99.99838886388899
 41
9.100155224723094
 42
50.0
 43
0.0
 44
0.0
 50
0.0
 51
0.0
 71
     0
 72
   100
 73
     1
 74
     3
 75
     0
 76
     0
 77
     0
 78
     0
  0
ENDTAB
  0
TABLE
  2
LTYPE
  5
5
330
0
100
AcDbSymbolTable
 70
     1
  0
LTYPE
  5
14
330
5
100
AcDbSymbolTableRecord
100
AcDbLinetypeTableRecord
  2
BYBLOCK
 70
     0
  3

 72
    65
 73
     0
 40
0.0
  0
LTYPE
  5
15
330
5
100
AcDbSymbolTableRecord
100
AcDbLinetypeTableRecord
  2
BYLAYER
 70
     0
  3

 72
    65
 73
     0
 40
0.0
  0
LTYPE
  5
16
330
5
100
AcDbSymbolTableRecord
100
AcDbLinetypeTableRecord
  2
CONTINUOUS
 70
     0
  3
Solid line
 72
    65
 73
     0
 40
0.0
  0
ENDTAB
  0
TABLE
  2
LAYER
  5
2
330
0
100
AcDbSymbolTable
 70
     2
  0
LAYER
  5
10
330
2
100
AcDbSymbolTableRecord
100
AcDbLayerTableRecord
  2
0
 70
     0
 62
     7
  6
CONTINUOUS
  0
LAYER
  5
40
330
2
100
AcDbSymbolTableRecord
100
AcDbLayerTableRecord
  2
_U_5716_U_5C64_1
 70
     0
 62
     7
  6
CONTINUOUS
  0
ENDTAB
  0
TABLE
  2
STYLE
  5
3
330
0
100
AcDbSymbolTable
 70
     1
  0
STYLE
  5
11
330
3
100
AcDbSymbolTableRecord
100
AcDbTextStyleTableRecord
  2
STANDARD
 70
     0
 40
0.0
 41
1.0
 50
0.0
 71
     0
 42
0.2
  3
txt
  4

  0
ENDTAB
  0
TABLE
  2
VIEW
  5
6
330
0
100
AcDbSymbolTable
 70
     0
  0
ENDTAB
  0
TABLE
  2
UCS
  5
7
330
0
100
AcDbSymbolTable
 70
     0
  0
ENDTAB
  0
TABLE
  2
APPID
  5
9
330
0
100
AcDbSymbolTable
 70
     1
  0
APPID
  5
12
330
9
100
AcDbSymbolTableRecord
100
AcDbRegAppTableRecord
  2
ACAD
 70
     0
  0
ENDTAB
  0
TABLE
  2
DIMSTYLE
  5
A
330
0
100
AcDbSymbolTable
 70
     1
  0
DIMSTYLE
105
27
330
A
100
AcDbSymbolTableRecord
100
AcDbDimStyleTableRecord
  2
STANDARD
 70
     0
  3

  4

  5

  6

  7

 40
1.0
 41
0.18
 42
0.0625
 43
0.38
 44
0.18
 45
0.0
 46
0.0
 47
0.0
 48
0.0
140
0.18
141
0.09
142
0.0
143
25.4
144
1.0
145
0.0
146
1.0
147
0.09
 71
     0
 72
     0
 73
     1
 74
     1
 75
     0
 76
     0
 77
     0
 78
     0
170
     0
171
     2
172
     0
173
     0
174
     0
175
     0
176
     0
177
     0
178
     0
270
     2
271
     4
272
     4
273
     2
274
     2
340
11
275
     0
280
     0
281
     0
282
     0
283
     1
284
     0
285
     0
286
     0
287
     3
288
     0
  0
ENDTAB
  0
TABLE
  2
BLOCK_RECORD
  5
1
330
0
100
AcDbSymbolTable
 70
     1
  0
BLOCK_RECORD
  5
1F
330
1
100
AcDbSymbolTableRecord
100
AcDbBlockTableRecord
  2
*MODEL_SPACE
  0
BLOCK_RECORD
  5
1B
330
1
100
AcDbSymbolTableRecord
100
AcDbBlockTableRecord
  2
*PAPER_SPACE
  0
ENDTAB
  0
ENDSEC
  0
SECTION
  2
BLOCKS
  0
BLOCK
  5
20
330
1F
100
AcDbEntity
  8
0
100
AcDbBlockBegin
  2
*MODEL_SPACE
 70
     0
 10
0.0
 20
0.0
 30
0.0
  3
*MODEL_SPACE
  1

  0
ENDBLK
  5
21
330
1F
100
AcDbEntity
  8
0
100
AcDbBlockEnd
  0
BLOCK
  5
1C
330
1B
100
AcDbEntity
 67
     1
  8
0
100
AcDbBlockBegin
  2
*PAPER_SPACE
 70
     0
 10
0.0
 20
0.0
 30
0.0
  3
*PAPER_SPACE
  1

  0
ENDBLK
  5
1D
330
1B
100
AcDbEntity
 67
     1
  8
0
100
AcDbBlockEnd
  0
ENDSEC
  0
SECTION
  2
ENTITIES
  0
POLYLINE
  5
41
330
1F
100
AcDbEntity
  8
_U_5716_U_5C64_1
 62
     7
100
AcDb2dPolyline
 66
     1
 10
0.0
 20
0.0
 30
0.0
  0
VERTEX
  5
42
330
41
100
AcDbEntity
  8
_U_5716_U_5C64_1
 62
     7
100
AcDbVertex
100
AcDb2dVertex
 10
486.225081003306
 20
-96.47118554503403
 30
0.0
  0
VERTEX
  5
43
330
41
100
AcDbEntity
  8
_U_5716_U_5C64_1
 62
     7
100
AcDbVertex
100
AcDb2dVertex
 10
568.2250499566003
 20
-96.47118554135261
 30
0.0
  0
VERTEX
  5
44
330
41
100
AcDbEntity
  8
_U_5716_U_5C64_1
 62
     7
100
AcDbVertex
100
AcDb2dVertex
 10
568.2250499557007
 20
-79.99917893323699
 30
0.0
  0
VERTEX
  5
45
330
41
100
AcDbEntity
  8
_U_5716_U_5C64_1
 62
     7
100
AcDbVertex
100
AcDb2dVertex
 10
572.225064196239
 20
-79.99917893305732
 30
0.0
  0
VERTEX
  5
46
330
41
100
AcDbEntity
  8
_U_5716_U_5C64_1
 62
     7
100
AcDbVertex
100
AcDb2dVertex
 10
572.2250641960131
 20
-74.99918266423353
 30
0.0
  0
VERTEX
  5
47
330
41
100
AcDbEntity
  8
_U_5716_U_5C64_1
 62
     7
100
AcDbVertex
100
AcDb2dVertex
 10
572.2250641953393
 20
-59.99919385776217
 30
0.0
  0
VERTEX
  5
48
330
41
100
AcDbEntity
  8
_U_5716_U_5C64_1
 62
     7
100
AcDbVertex
100
AcDb2dVertex
 10
568.2250499548041
 20
-59.99919385794185
 30
0.0
  0
VERTEX
  5
49
330
41
100
AcDbEntity
  8
_U_5716_U_5C64_1
 62
     7
100
AcDbVertex
100
AcDb2dVertex
 10
568.2250499539045
 20
-39.99918725079992
 30
0.0
  0
VERTEX
  5
4A
330
41
100
AcDbEntity
  8
_U_5716_U_5C64_1
 62
     7
100
AcDbVertex
100
AcDb2dVertex
 10
572.2250641944429
 20
-39.99918725062025
 30
0.0
  0
VERTEX
  5
4B
330
41
100
AcDbEntity
  8
_U_5716_U_5C64_1
 62
     7
100
AcDbVertex
100
AcDb2dVertex
 10
572.2250641937691
 20
-24.9991769123021
 30
0.0
  0
VERTEX
  5
4C
330
41
100
AcDbEntity
  8
_U_5716_U_5C64_1
 62
     7
100
AcDbVertex
100
AcDb2dVertex
 10
572.2250641935433
 20
-19.99918064347832
 30
0.0
  0
VERTEX
  5
4D
330
41
100
AcDbEntity
  8
_U_5716_U_5C64_1
 62
     7
100
AcDbVertex
100
AcDb2dVertex
 10
568.2250499530087
 20
-19.99918064365799
 30
0.0
  0
VERTEX
  5
4E
330
41
100
AcDbEntity
  8
_U_5716_U_5C64_1
 62
     7
100
AcDbVertex
100
AcDb2dVertex
 10
568.2250499521091
 20
-3.52719556738916
 30
0.0
  0
VERTEX
  5
4F
330
41
100
AcDbEntity
  8
_U_5716_U_5C64_1
 62
     7
100
AcDbVertex
100
AcDb2dVertex
 10
486.2250809988147
 20
-3.527195571070587
 30
0.0
  0
VERTEX
  5
50
330
41
100
AcDbEntity
  8
_U_5716_U_5C64_1
 62
     7
100
AcDbVertex
100
AcDb2dVertex
 10
486.2250809988147
 20
-3.52721710291737
 30
0.0
  0
SEQEND
  5
51
330
41
100
AcDbEntity
  8
_U_5716_U_5C64_1
 62
     7
  0
SPLINE
  5
52
330
1F
100
AcDbEntity
  8
_U_5716_U_5C64_1
 62
     5
100
AcDbSpline
210
0.0
220
0.0
230
1.0
 70
    11
 71
     3
 72
    17
 73
    13
 74
     0
 42
0.0000000001
 43
0.0000000001
 12
1.0
 22
0.0
 32
0.0
 13
1.0
 23
0.0
 33
0.0
 40
0.0
 40
0.0
 40
0.0
 40
0.0
 40
1.0
 40
1.0
 40
1.0
 40
2.0
 40
2.0
 40
2.0
 40
3.0
 40
3.0
 40
3.0
 40
4.0
 40
4.0
 40
4.0
 40
4.0
 10
523.7250622692045
 20
-49.95651292891145
 30
0.0
 10
523.7250622691159
 20
-48.02351291583133
 30
0.0
 10
525.2920639505112
 20
-46.4565112342955
 30
0.0
 10
527.2250639635927
 20
-46.45651123420823
 30
0.0
 10
529.1580639766696
 20
-46.4565112341216
 30
0.0
 10
530.7250656582061
 20
-48.02351291551754
 30
0.0
 10
530.7250656582946
 20
-49.95651292859766
 30
0.0
 10
530.7250656583825
 20
-51.889491409831
 30
0.0
 10
529.1580639769873
 20
-53.45651462321361
 30
0.0
 10
527.2250639639065
 20
-53.45651462330024
 30
0.0
 10
525.2920639508251
 20
-53.45651462338751
 30
0.0
 10
523.7250622692892
 20
-51.88949141014479
 30
0.0
 10
523.7250622692045
 20
-49.95651292891145
 30
0.0
  0
POLYLINE
  5
53
330
1F
100
AcDbEntity
  8
_U_5716_U_5C64_1
 62
     7
100
AcDb2dPolyline
 66
     1
 10
0.0
 20
0.0
 30
0.0
  0
VERTEX
  5
54
330
53
100
AcDbEntity
  8
_U_5716_U_5C64_1
 62
     7
100
AcDbVertex
100
AcDb2dVertex
 10
204.2251114988423
 20
-96.47119338767564
 30
0.0
  0
VERTEX
  5
55
330
53
100
AcDbEntity
  8
_U_5716_U_5C64_1
 62
     7
100
AcDbVertex
100
AcDb2dVertex
 10
286.2250804521378
 20
-96.47119339135642
 30
0.0
  0
VERTEX
  5
56
330
53
100
AcDbEntity
  8
_U_5716_U_5C64_1
 62
     7
100
AcDbVertex
100
AcDb2dVertex
 10
286.2250804521378
 20
-96.47117185950964
 30
0.0
  0
SEQEND
  5
57
330
53
100
AcDbEntity
  8
_U_5716_U_5C64_1
 62
     7
  0
POLYLINE
  5
58
330
1F
100
AcDbEntity
  8
_U_5716_U_5C64_1
 62
     7
100
AcDb2dPolyline
 66
     1
 10
0.0
 20
0.0
 30
0.0
  0
VERTEX
  5
59
330
58
100
AcDbEntity
  8
_U_5716_U_5C64_1
 62
     7
100
AcDbVertex
100
AcDb2dVertex
 10
286.2250804566272
 20
-3.527203740342131
 30
0.0
  0
VERTEX
  5
5A
330
58
100
AcDbEntity
  8
_U_5716_U_5C64_1
 62
     7
100
AcDbVertex
100
AcDb2dVertex
 10
204.2251115033316
 20
-3.527203736661345
 30
0.0
  0
SEQEND
  5
5B
330
58
100
AcDbEntity
  8
_U_5716_U_5C64_1
 62
     7
  0
SPLINE
  5
5C
330
1F
100
AcDbEntity
  8
_U_5716_U_5C64_1
 62
     5
100
AcDbSpline
210
0.0
220
0.0
230
1.0
 70
    11
 71
     3
 72
    17
 73
    13
 74
     0
 42
0.0000000001
 43
0.0000000001
 12
1.0
 22
0.0
 32
0.0
 13
1.0
 23
0.0
 33
0.0
 40
0.0
 40
0.0
 40
0.0
 40
0.0
 40
1.0
 40
1.0
 40
1.0
 40
2.0
 40
2.0
 40
2.0
 40
3.0
 40
3.0
 40
3.0
 40
4.0
 40
4.0
 40
4.0
 40
4.0
 10
248.7250848877467
 20
-49.9991985641661
 30
0.0
 10
248.7250848876594
 20
-51.93219857724558
 30
0.0
 10
247.1580832061236
 20
-53.49920025864088
 30
0.0
 10
245.2250831930438
 20
-53.49920025855489
 30
0.0
 10
243.2920831799634
 20
-53.49920025846762
 30
0.0
 10
241.7250814985674
 20
-51.93219857693114
 30
0.0
 10
241.7250814986547
 20
-49.99919856385134
 30
0.0
 10
241.7250814987413
 20
-48.06622008261801
 30
0.0
 10
243.2920831802775
 20
-46.49919686937528
 30
0.0
 10
245.2250831933573
 20
-46.49919686946256
 30
0.0
 10
247.1580832064377
 20
-46.49919686954919
 30
0.0
 10
248.7250848878333
 20
-48.06622008293245
 30
0.0
 10
248.7250848877467
 20
-49.9991985641661
 30
0.0
  0
POLYLINE
  5
5D
330
1F
100
AcDbEntity
  8
_U_5716_U_5C64_1
 62
     7
100
AcDb2dPolyline
 66
     1
 10
0.0
 20
0.0
 30
0.0
  0
VERTEX
  5
5E
330
5D
100
AcDbEntity
  8
_U_5716_U_5C64_1
 62
     7
100
AcDbVertex
100
AcDb2dVertex
 10
204.2251118766118
 20
-19.91385794449571
 30
0.0
  0
VERTEX
  5
5F
330
5D
100
AcDbEntity
  8
_U_5716_U_5C64_1
 62
     7
100
AcDbVertex
100
AcDb2dVertex
 10
204.2251118766118
 20
-3.527203577027159
 30
0.0
  0
VERTEX
  5
60
330
5D
100
AcDbEntity
  8
_U_5716_U_5C64_1
 62
     7
100
AcDbVertex
100
AcDb2dVertex
 10
154.2251276565271
 20
-3.527203577027159
 30
0.0
  0
VERTEX
  5
61
330
5D
100
AcDbEntity
  8
_U_5716_U_5C64_1
 62
     7
100
AcDbVertex
100
AcDb2dVertex
 10
154.2251276565271
 20
-7.527196285716831
 30
0.0
  0
VERTEX
  5
62
330
5D
100
AcDbEntity
  8
_U_5716_U_5C64_1
 62
     7
100
AcDbVertex
100
AcDb2dVertex
 10
134.3104732900323
 20
-7.527196285716831
 30
0.0
  0
VERTEX
  5
63
330
5D
100
AcDbEntity
  8
_U_5716_U_5C64_1
 62
     7
100
AcDbVertex
100
AcDb2dVertex
 10
134.3104732900323
 20
-3.527203577027159
 30
0.0
  0
VERTEX
  5
64
330
5D
100
AcDbEntity
  8
_U_5716_U_5C64_1
 62
     7
100
AcDbVertex
100
AcDb2dVertex
 10
114.4533089544475
 20
-3.527203577027159
 30
0.0
  0
VERTEX
  5
65
330
5D
100
AcDbEntity
  8
_U_5716_U_5C64_1
 62
     7
100
AcDbVertex
100
AcDb2dVertex
 10
114.4533089544475
 20
-7.527196285716831
 30
0.0
  0
VERTEX
  5
66
330
5D
100
AcDbEntity
  8
_U_5716_U_5C64_1
 62
     7
100
AcDbVertex
100
AcDb2dVertex
 10
94.12560917111799
 20
-7.527196285716831
 30
0.0
  0
VERTEX
  5
67
330
5D
100
AcDbEntity
  8
_U_5716_U_5C64_1
 62
     7
100
AcDbVertex
100
AcDb2dVertex
 10
94.12560917111799
 20
-3.527203577027159
 30
0.0
  0
VERTEX
  5
68
330
5D
100
AcDbEntity
  8
_U_5716_U_5C64_1
 62
     7
100
AcDbVertex
100
AcDb2dVertex
 10
73.99055482095427
 20
-3.527203577027159
 30
0.0
  0
VERTEX
  5
69
330
5D
100
AcDbEntity
  8
_U_5716_U_5C64_1
 62
     7
100
AcDbVertex
100
AcDb2dVertex
 10
73.99055482095427
 20
-7.527196285716831
 30
0.0
  0
VERTEX
  5
6A
330
5D
100
AcDbEntity
  8
_U_5716_U_5C64_1
 62
     7
100
AcDbVertex
100
AcDb2dVertex
 10
54.22513768451107
 20
-7.527196285716831
 30
0.0
  0
VERTEX
  5
6B
330
5D
100
AcDbEntity
  8
_U_5716_U_5C64_1
 62
     7
100
AcDbVertex
100
AcDb2dVertex
 10
54.22513768451107
 20
-3.527203577027159
 30
0.0
  0
VERTEX
  5
6C
330
5D
100
AcDbEntity
  8
_U_5716_U_5C64_1
 62
     7
100
AcDbVertex
100
AcDb2dVertex
 10
4.225110400732865
 20
-3.527203577027159
 30
0.0
  0
VERTEX
  5
6D
330
5D
100
AcDbEntity
  8
_U_5716_U_5C64_1
 62
     7
100
AcDbVertex
100
AcDb2dVertex
 10
4.225110400732865
 20
-14.56162219415191
 30
0.0
  0
VERTEX
  5
6E
330
5D
100
AcDbEntity
  8
_U_5716_U_5C64_1
 62
     7
100
AcDbVertex
100
AcDb2dVertex
 10
4.225110400732865
 20
-19.91385794449571
 30
0.0
  0
VERTEX
  5
6F
330
5D
100
AcDbEntity
  8
_U_5716_U_5C64_1
 62
     7
100
AcDbVertex
100
AcDb2dVertex
 10
8.225103109422538
 20
-19.91385794449571
 30
0.0
  0
VERTEX
  5
70
330
5D
100
AcDbEntity
  8
_U_5716_U_5C64_1
 62
     7
100
AcDbVertex
100
AcDb2dVertex
 10
8.225103109422538
 20
-39.77102228008047
 30
0.0
  0
VERTEX
  5
71
330
5D
100
AcDbEntity
  8
_U_5716_U_5C64_1
 62
     7
100
AcDbVertex
100
AcDb2dVertex
 10
4.225110400732865
 20
-39.77102228008047
 30
0.0
  0
VERTEX
  5
72
330
5D
100
AcDbEntity
  8
_U_5716_U_5C64_1
 62
     7
100
AcDbVertex
100
AcDb2dVertex
 10
4.225110400732865
 20
-39.91386455163764
 30
0.0
  0
VERTEX
  5
73
330
5D
100
AcDbEntity
  8
_U_5716_U_5C64_1
 62
     7
100
AcDbVertex
100
AcDb2dVertex
 10
4.225110400732865
 20
-60.09872206341
 30
0.0
  0
VERTEX
  5
74
330
5D
100
AcDbEntity
  8
_U_5716_U_5C64_1
 62
     7
100
AcDbVertex
100
AcDb2dVertex
 10
8.225103109422538
 20
-60.09872206341
 30
0.0
  0
VERTEX
  5
75
330
5D
100
AcDbEntity
  8
_U_5716_U_5C64_1
 62
     7
100
AcDbVertex
100
AcDb2dVertex
 10
8.225103109422538
 20
-80.23377641357372
 30
0.0
  0
VERTEX
  5
76
330
5D
100
AcDbEntity
  8
_U_5716_U_5C64_1
 62
     7
100
AcDbVertex
100
AcDb2dVertex
 10
4.225110400732865
 20
-80.23377641357372
 30
0.0
  0
VERTEX
  5
77
330
5D
100
AcDbEntity
  8
_U_5716_U_5C64_1
 62
     7
100
AcDbVertex
100
AcDb2dVertex
 10
4.225110400732865
 20
-96.4711935509906
 30
0.0
  0
VERTEX
  5
78
330
5D
100
AcDbEntity
  8
_U_5716_U_5C64_1
 62
     7
100
AcDbVertex
100
AcDb2dVertex
 10
204.2251118766118
 20
-96.4711935509906
 30
0.0
  0
VERTEX
  5
79
330
5D
100
AcDbEntity
  8
_U_5716_U_5C64_1
 62
     7
100
AcDbVertex
100
AcDb2dVertex
 10
204.2251118766118
 20
-80.09872867055192
 30
0.0
  0
VERTEX
  5
7A
330
5D
100
AcDbEntity
  8
_U_5716_U_5C64_1
 62
     7
100
AcDbVertex
100
AcDb2dVertex
 10
204.2251118766118
 20
-80.04886091340293
 30
0.0
  0
VERTEX
  5
7B
330
5D
100
AcDbEntity
  8
_U_5716_U_5C64_1
 62
     7
100
AcDbVertex
100
AcDb2dVertex
 10
200.2250976360753
 20
-80.04886091340293
 30
0.0
  0
VERTEX
  5
7C
330
5D
100
AcDbEntity
  8
_U_5716_U_5C64_1
 62
     7
100
AcDbVertex
100
AcDb2dVertex
 10
200.2250976360753
 20
-60.09872206341
 30
0.0
  0
VERTEX
  5
7D
330
5D
100
AcDbEntity
  8
_U_5716_U_5C64_1
 62
     7
100
AcDbVertex
100
AcDb2dVertex
 10
204.2251118766118
 20
-60.09872206341
 30
0.0
  0
VERTEX
  5
7E
330
5D
100
AcDbEntity
  8
_U_5716_U_5C64_1
 62
     7
100
AcDbVertex
100
AcDb2dVertex
 10
204.2251118766118
 20
-39.95927521650259
 30
0.0
  0
VERTEX
  5
7F
330
5D
100
AcDbEntity
  8
_U_5716_U_5C64_1
 62
     7
100
AcDbVertex
100
AcDb2dVertex
 10
200.2250976360753
 20
-39.95927521650259
 30
0.0
  0
VERTEX
  5
80
330
5D
100
AcDbEntity
  8
_U_5716_U_5C64_1
 62
     7
100
AcDbVertex
100
AcDb2dVertex
 10
200.2250976360753
 20
-19.91385794449571
 30
0.0
  0
VERTEX
  5
81
330
5D
100
AcDbEntity
  8
_U_5716_U_5C64_1
 62
     7
100
AcDbVertex
100
AcDb2dVertex
 10
204.2251118766118
 20
-19.91385794449571
 30
0.0
  0
SEQEND
  5
82
330
5D
100
AcDbEntity
  8
_U_5716_U_5C64_1
 62
     7
  0
POLYLINE
  5
83
330
1F
100
AcDbEntity
  8
_U_5716_U_5C64_1
 62
     7
100
AcDb2dPolyline
 66
     1
 10
0.0
 20
0.0
 30
0.0
  0
VERTEX
  5
84
330
83
100
AcDbEntity
  8
_U_5716_U_5C64_1
 62
     7
100
AcDbVertex
100
AcDb2dVertex
 10
486.2250780532474
 20
-19.91384692224051
 30
0.0
  0
VERTEX
  5
85
330
83
100
AcDbEntity
  8
_U_5716_U_5C64_1
 62
     7
100
AcDbVertex
100
AcDb2dVertex
 10
486.2250780532474
 20
-3.527192554771952
 30
0.0
  0
VERTEX
  5
86
330
83
100
AcDbEntity
  8
_U_5716_U_5C64_1
 62
     7
100
AcDbVertex
100
AcDb2dVertex
 10
436.2250938331634
 20
-3.527192554771952
 30
0.0
  0
VERTEX
  5
87
330
83
100
AcDbEntity
  8
_U_5716_U_5C64_1
 62
     7
100
AcDbVertex
100
AcDb2dVertex
 10
436.2250938331634
 20
-7.663977086072826
 30
0.0
  0
VERTEX
  5
88
330
83
100
AcDbEntity
  8
_U_5716_U_5C64_1
 62
     7
100
AcDbVertex
100
AcDb2dVertex
 10
416.3104394666689
 20
-7.663977086072826
 30
0.0
  0
VERTEX
  5
89
330
83
100
AcDbEntity
  8
_U_5716_U_5C64_1
 62
     7
100
AcDbVertex
100
AcDb2dVertex
 10
416.3104394666689
 20
-3.527192554771952
 30
0.0
  0
VERTEX
  5
8A
330
83
100
AcDbEntity
  8
_U_5716_U_5C64_1
 62
     7
100
AcDbVertex
100
AcDb2dVertex
 10
396.4532751310819
 20
-3.527192554771952
 30
0.0
  0
VERTEX
  5
8B
330
83
100
AcDbEntity
  8
_U_5716_U_5C64_1
 62
     7
100
AcDbVertex
100
AcDb2dVertex
 10
396.4532751310819
 20
-7.818597277820195
 30
0.0
  0
VERTEX
  5
8C
330
83
100
AcDbEntity
  8
_U_5716_U_5C64_1
 62
     7
100
AcDbVertex
100
AcDb2dVertex
 10
376.1255753477542
 20
-7.818597277820195
 30
0.0
  0
VERTEX
  5
8D
330
83
100
AcDbEntity
  8
_U_5716_U_5C64_1
 62
     7
100
AcDbVertex
100
AcDb2dVertex
 10
376.1255753477542
 20
-3.527192554771952
 30
0.0
  0
VERTEX
  5
8E
330
83
100
AcDbEntity
  8
_U_5716_U_5C64_1
 62
     7
100
AcDbVertex
100
AcDb2dVertex
 10
355.9905209975892
 20
-3.527192554771952
 30
0.0
  0
VERTEX
  5
8F
330
83
100
AcDbEntity
  8
_U_5716_U_5C64_1
 62
     7
100
AcDbVertex
100
AcDb2dVertex
 10
355.9905209975892
 20
-7.818597277820195
 30
0.0
  0
VERTEX
  5
90
330
83
100
AcDbEntity
  8
_U_5716_U_5C64_1
 62
     7
100
AcDbVertex
100
AcDb2dVertex
 10
336.225103861146
 20
-7.818597277820195
 30
0.0
  0
VERTEX
  5
91
330
83
100
AcDbEntity
  8
_U_5716_U_5C64_1
 62
     7
100
AcDbVertex
100
AcDb2dVertex
 10
336.225103861146
 20
-3.527192554771952
 30
0.0
  0
VERTEX
  5
92
330
83
100
AcDbEntity
  8
_U_5716_U_5C64_1
 62
     7
100
AcDbVertex
100
AcDb2dVertex
 10
286.2250765773678
 20
-3.527192554771952
 30
0.0
  0
VERTEX
  5
93
330
83
100
AcDbEntity
  8
_U_5716_U_5C64_1
 62
     7
100
AcDbVertex
100
AcDb2dVertex
 10
286.2250765773678
 20
-14.56161117189671
 30
0.0
  0
VERTEX
  5
94
330
83
100
AcDbEntity
  8
_U_5716_U_5C64_1
 62
     7
100
AcDbVertex
100
AcDb2dVertex
 10
286.2250765773678
 20
-19.91384692224051
 30
0.0
  0
VERTEX
  5
95
330
83
100
AcDbEntity
  8
_U_5716_U_5C64_1
 62
     7
100
AcDbVertex
100
AcDb2dVertex
 10
290.2250692860575
 20
-19.91384692224051
 30
0.0
  0
VERTEX
  5
96
330
83
100
AcDbEntity
  8
_U_5716_U_5C64_1
 62
     7
100
AcDbVertex
100
AcDb2dVertex
 10
290.2250692860575
 20
-39.91385352938243
 30
0.0
  0
VERTEX
  5
97
330
83
100
AcDbEntity
  8
_U_5716_U_5C64_1
 62
     7
100
AcDbVertex
100
AcDb2dVertex
 10
286.2250765773678
 20
-39.91385352938243
 30
0.0
  0
VERTEX
  5
98
330
83
100
AcDbEntity
  8
_U_5716_U_5C64_1
 62
     7
100
AcDbVertex
100
AcDb2dVertex
 10
286.2250765773678
 20
-60.09871104115479
 30
0.0
  0
VERTEX
  5
99
330
83
100
AcDbEntity
  8
_U_5716_U_5C64_1
 62
     7
100
AcDbVertex
100
AcDb2dVertex
 10
290.2250692860575
 20
-60.09871104115479
 30
0.0
  0
VERTEX
  5
9A
330
83
100
AcDbEntity
  8
_U_5716_U_5C64_1
 62
     7
100
AcDbVertex
100
AcDb2dVertex
 10
290.2250692860575
 20
-80.09871764829673
 30
0.0
  0
VERTEX
  5
9B
330
83
100
AcDbEntity
  8
_U_5716_U_5C64_1
 62
     7
100
AcDbVertex
100
AcDb2dVertex
 10
286.2250765773678
 20
-80.09871764829673
 30
0.0
  0
VERTEX
  5
9C
330
83
100
AcDbEntity
  8
_U_5716_U_5C64_1
 62
     7
100
AcDbVertex
100
AcDb2dVertex
 10
286.2250765773678
 20
-96.4711825287354
 30
0.0
  0
VERTEX
  5
9D
330
83
100
AcDbEntity
  8
_U_5716_U_5C64_1
 62
     7
100
AcDbVertex
100
AcDb2dVertex
 10
486.2250780532474
 20
-96.4711825287354
 30
0.0
  0
VERTEX
  5
9E
330
83
100
AcDbEntity
  8
_U_5716_U_5C64_1
 62
     7
100
AcDbVertex
100
AcDb2dVertex
 10
486.2250780532474
 20
-80.09871764829673
 30
0.0
  0
VERTEX
  5
9F
330
83
100
AcDbEntity
  8
_U_5716_U_5C64_1
 62
     7
100
AcDbVertex
100
AcDb2dVertex
 10
486.2250565213993
 20
-80.09871764829673
 30
0.0
  0
VERTEX
  5
A0
330
83
100
AcDbEntity
  8
_U_5716_U_5C64_1
 62
     7
100
AcDbVertex
100
AcDb2dVertex
 10
482.225063812709
 20
-80.09871764829673
 30
0.0
  0
VERTEX
  5
A1
330
83
100
AcDbEntity
  8
_U_5716_U_5C64_1
 62
     7
100
AcDbVertex
100
AcDb2dVertex
 10
482.225063812709
 20
-60.09871104115479
 30
0.0
  0
VERTEX
  5
A2
330
83
100
AcDbEntity
  8
_U_5716_U_5C64_1
 62
     7
100
AcDbVertex
100
AcDb2dVertex
 10
486.2250565213993
 20
-60.09871104115479
 30
0.0
  0
VERTEX
  5
A3
330
83
100
AcDbEntity
  8
_U_5716_U_5C64_1
 62
     7
100
AcDbVertex
100
AcDb2dVertex
 10
486.2250780532474
 20
-60.09871104115479
 30
0.0
  0
VERTEX
  5
A4
330
83
100
AcDbEntity
  8
_U_5716_U_5C64_1
 62
     7
100
AcDbVertex
100
AcDb2dVertex
 10
486.2250780532474
 20
-39.91385352938243
 30
0.0
  0
VERTEX
  5
A5
330
83
100
AcDbEntity
  8
_U_5716_U_5C64_1
 62
     7
100
AcDbVertex
100
AcDb2dVertex
 10
482.225063812709
 20
-39.91385352938243
 30
0.0
  0
VERTEX
  5
A6
330
83
100
AcDbEntity
  8
_U_5716_U_5C64_1
 62
     7
100
AcDbVertex
100
AcDb2dVertex
 10
482.225063812709
 20
-19.91384692224051
 30
0.0
  0
VERTEX
  5
A7
330
83
100
AcDbEntity
  8
_U_5716_U_5C64_1
 62
     7
100
AcDbVertex
100
AcDb2dVertex
 10
486.2250780532474
 20
-19.91384692224051
 30
0.0
  0
SEQEND
  5
A8
330
83
100
AcDbEntity
  8
_U_5716_U_5C64_1
 62
     7
  0
SPLINE
  5
A9
330
1F
100
AcDbEntity
  8
_U_5716_U_5C64_1
 62
     5
100
AcDbSpline
210
0.0
220
0.0
230
1.0
 70
    11
 71
     3
 72
    17
 73
    13
 74
     0
 42
0.0000000001
 43
0.0000000001
 12
1.0
 22
0.0
 32
0.0
 13
1.0
 23
0.0
 33
0.0
 40
0.0
 40
0.0
 40
0.0
 40
0.0
 40
1.0
 40
1.0
 40
1.0
 40
2.0
 40
2.0
 40
2.0
 40
3.0
 40
3.0
 40
3.0
 40
4.0
 40
4.0
 40
4.0
 40
4.0
 10
317.5993007506378
 20
-53.68215407559741
 30
0.0
 10
315.5282385359863
 20
-53.68215407559741
 30
0.0
 10
313.8493143149433
 20
-52.00322985455447
 30
0.0
 10
313.8493143149433
 20
-49.9321461080565
 30
0.0
 10
313.8493143149433
 20
-47.861083893405
 30
0.0
 10
315.5282385359863
 20
-46.18215967236205
 30
0.0
 10
317.5993007506378
 20
-46.18215967236205
 30
0.0
 10
319.6703629652893
 20
-46.18215967236205
 30
0.0
 10
321.349308718179
 20
-47.861083893405
 30
0.0
 10
321.349308718179
 20
-49.9321461080565
 30
0.0
 10
321.349308718179
 20
-52.00322985455447
 30
0.0
 10
319.6703629652893
 20
-53.68215407559741
 30
0.0
 10
317.5993007506378
 20
-53.68215407559741
 30
0.0
  0
SPLINE
  5
AA
330
1F
100
AcDbEntity
  8
_U_5716_U_5C64_1
 62
     5
100
AcDbSpline
210
0.0
220
0.0
230
1.0
 70
    11
 71
     3
 72
    17
 73
    13
 74
     0
 42
0.0000000001
 43
0.0000000001
 12
1.0
 22
0.0
 32
0.0
 13
1.0
 23
0.0
 33
0.0
 40
0.0
 40
0.0
 40
0.0
 40
0.0
 40
1.0
 40
1.0
 40
1.0
 40
2.0
 40
2.0
 40
2.0
 40
3.0
 40
3.0
 40
3.0
 40
4.0
 40
4.0
 40
4.0
 40
4.0
 10
434.0525069321901
 20
-53.68215407559741
 30
0.0
 10
431.9814447175395
 20
-53.68215407559741
 30
0.0
 10
430.3024989646511
 20
-52.00322985455447
 30
0.0
 10
430.3024989646511
 20
-49.9321461080565
 30
0.0
 10
430.3024989646511
 20
-47.861083893405
 30
0.0
 10
431.9814447175395
 20
-46.18215967236205
 30
0.0
 10
434.0525069321901
 20
-46.18215967236205
 30
0.0
 10
436.123569146841
 20
-46.18215967236205
 30
0.0
 10
437.8024933678846
 20
-47.861083893405
 30
0.0
 10
437.8024933678846
 20
-49.9321461080565
 30
0.0
 10
437.8024933678846
 20
-52.00322985455447
 30
0.0
 10
436.123569146841
 20
-53.68215407559741
 30
0.0
 10
434.0525069321901
 20
-53.68215407559741
 30
0.0
  0
POLYLINE
  5
AB
330
1F
100
AcDbEntity
  8
_U_5716_U_5C64_1
 62
     5
100
AcDb2dPolyline
 66
     1
 10
0.0
 20
0.0
 30
0.0
  0
VERTEX
  5
AC
330
AB
100
AcDbEntity
  8
_U_5716_U_5C64_1
 62
     5
100
AcDbVertex
100
AcDb2dVertex
 10
584.0145662437167
 20
-39.77102202374865
 30
0.0
  0
VERTEX
  5
142
330
AB
100
AcDbEntity
  8
0
100
AcDbVertex
100
AcDb2dVertex
 10
584.0145662437167
 20
-39.77102202374865
 30
0.0
  0
SEQEND
  5
AD
330
AB
100
AcDbEntity
  8
_U_5716_U_5C64_1
 62
     5
  0
SPLINE
  5
AE
330
1F
100
AcDbEntity
  8
_U_5716_U_5C64_1
 62
     7
100
AcDbSpline
210
0.0
220
0.0
230
1.0
 70
    11
 71
     3
 72
    17
 73
    13
 74
     0
 42
0.0000000001
 43
0.0000000001
 12
1.0
 22
0.0
 32
0.0
 13
1.0
 23
0.0
 33
0.0
 40
0.0
 40
0.0
 40
0.0
 40
0.0
 40
1.0
 40
1.0
 40
1.0
 40
2.0
 40
2.0
 40
2.0
 40
3.0
 40
3.0
 40
3.0
 40
4.0
 40
4.0
 40
4.0
 40
4.0
 10
601.6917827293809
 20
-3.527194300150346
 30
0.0
 10
586.2278256884329
 20
-3.527194300150346
 30
0.0
 10
573.6917907048609
 20
-16.06322928372424
 30
0.0
 10
573.6917907048609
 20
-31.52718632467162
 30
0.0
 10
573.6917907048609
 20
-46.99116489746578
 30
0.0
 10
586.2278256884329
 20
-59.52719988103967
 30
0.0
 10
601.6917827293809
 20
-59.52719988103967
 30
0.0
 10
617.1557613021738
 20
-59.52719988103967
 30
0.0
 10
629.6917962857489
 20
-46.99116489746578
 30
0.0
 10
629.6917962857489
 20
-31.52718632467162
 30
0.0
 10
629.6917962857489
 20
-16.06322928372424
 30
0.0
 10
617.1557613021738
 20
-3.527194300150346
 30
0.0
 10
601.6917827293809
 20
-3.527194300150346
 30
0.0
  0
SPLINE
  5
AF
330
1F
100
AcDbEntity
  8
_U_5716_U_5C64_1
 62
     5
100
AcDbSpline
210
0.0
220
0.0
230
1.0
 70
    11
 71
     3
 72
    17
 73
    13
 74
     0
 42
0.0000000001
 43
0.0000000001
 12
1.0
 22
0.0
 32
0.0
 13
1.0
 23
0.0
 33
0.0
 40
0.0
 40
0.0
 40
0.0
 40
0.0
 40
1.0
 40
1.0
 40
1.0
 40
2.0
 40
2.0
 40
2.0
 40
3.0
 40
3.0
 40
3.0
 40
4.0
 40
4.0
 40
4.0
 40
4.0
 10
601.6917827293809
 20
-34.02720599093029
 30
0.0
 10
600.3110745862817
 20
-34.02720599093029
 30
0.0
 10
599.1917845949683
 20
-32.90791599961941
 30
0.0
 10
599.1917845949683
 20
-31.52718632467162
 30
0.0
 10
599.1917845949683
 20
-30.14647818157061
 30
0.0
 10
600.3110745862817
 20
-29.02718819025973
 30
0.0
 10
601.6917827293809
 20
-29.02718819025973
 30
0.0
 10
603.072512404328
 20
-29.02718819025973
 30
0.0
 10
604.1917808637934
 20
-30.14647818157061
 30
0.0
 10
604.1917808637934
 20
-31.52718632467162
 30
0.0
 10
604.1917808637934
 20
-32.90791599961941
 30
0.0
 10
603.072512404328
 20
-34.02720599093029
 30
0.0
 10
601.6917827293809
 20
-34.02720599093029
 30
0.0
  0
SPLINE
  5
B0
330
1F
100
AcDbEntity
  8
_U_5716_U_5C64_1
 62
     5
100
AcDbSpline
210
0.0
220
0.0
230
1.0
 70
    11
 71
     3
 72
    17
 73
    13
 74
     0
 42
0.0000000001
 43
0.0000000001
 12
1.0
 22
0.0
 32
0.0
 13
1.0
 23
0.0
 33
0.0
 40
0.0
 40
0.0
 40
0.0
 40
0.0
 40
1.0
 40
1.0
 40
1.0
 40
2.0
 40
2.0
 40
2.0
 40
3.0
 40
3.0
 40
3.0
 40
4.0
 40
4.0
 40
4.0
 40
4.0
 10
600.9417928226209
 20
-9.241638776872465
 30
0.0
 10
600.9417928227339
 20
-8.827425214626144
 30
0.0
 10
601.2775792603911
 20
-8.491638777150454
 30
0.0
 10
601.6917928226349
 20
-8.491638777262109
 30
0.0
 10
602.1060063848824
 20
-8.491638777373765
 30
0.0
 10
602.4417928223563
 20
-8.827425215030415
 30
0.0
 10
602.4417928222472
 20
-9.241638777276735
 30
0.0
 10
602.4417928221343
 20
-9.655852339523054
 30
0.0
 10
602.1060063844769
 20
-9.991638776998744
 30
0.0
 10
601.6917928222332
 20
-9.99163877688709
 30
0.0
 10
601.2775792599856
 20
-9.991638776775433
 30
0.0
 10
600.941792822508
 20
-9.655852339118784
 30
0.0
 10
600.9417928226209
 20
-9.241638776872465
 30
0.0
  0
SPLINE
  5
B1
330
1F
100
AcDbEntity
  8
_U_5716_U_5C64_1
 62
     5
100
AcDbSpline
210
0.0
220
0.0
230
1.0
 70
    11
 71
     3
 72
    17
 73
    13
 74
     0
 42
0.0000000001
 43
0.0000000001
 12
1.0
 22
0.0
 32
0.0
 13
1.0
 23
0.0
 33
0.0
 40
0.0
 40
0.0
 40
0.0
 40
0.0
 40
1.0
 40
1.0
 40
1.0
 40
2.0
 40
2.0
 40
2.0
 40
3.0
 40
3.0
 40
3.0
 40
4.0
 40
4.0
 40
4.0
 40
4.0
 10
595.1994215089536
 20
-10.19511504869484
 30
0.0
 10
595.092215150418
 20
-9.7950154712923
 30
0.0
 10
595.3296520175625
 20
-9.383762754066275
 30
0.0
 10
595.7297515949672
 20
-9.276556395528079
 30
0.0
 10
596.1298511723688
 20
-9.169350036989561
 30
0.0
 10
596.5411038895948
 20
-9.406786904137169
 30
0.0
 10
596.6483102481343
 20
-9.80688648153939
 30
0.0
 10
596.7555166066737
 20
-10.20698605894225
 30
0.0
 10
596.5180797395255
 20
-10.61823877616828
 30
0.0
 10
596.11798016212
 20
-10.72544513470679
 30
0.0
 10
595.7178805847185
 20
-10.83265149324531
 30
0.0
 10
595.3066278674931
 20
-10.5952146260977
 30
0.0
 10
595.1994215089536
 20
-10.19511504869484
 30
0.0
  0
SPLINE
  5
B2
330
1F
100
AcDbEntity
  8
_U_5716_U_5C64_1
 62
     5
100
AcDbSpline
210
0.0
220
0.0
230
1.0
 70
    11
 71
     3
 72
    17
 73
    13
 74
     0
 42
0.0000000001
 43
0.0000000001
 12
1.0
 22
0.0
 32
0.0
 13
1.0
 23
0.0
 33
0.0
 40
0.0
 40
0.0
 40
0.0
 40
0.0
 40
1.0
 40
1.0
 40
1.0
 40
2.0
 40
2.0
 40
2.0
 40
3.0
 40
3.0
 40
3.0
 40
4.0
 40
4.0
 40
4.0
 40
4.0
 10
589.8994945711258
 20
-12.60233746439022
 30
0.0
 10
589.6923877901044
 20
-12.24361799683346
 30
0.0
 10
589.815294156631
 20
-11.78492519290717
 30
0.0
 10
590.1740136241862
 20
-11.57781841188572
 30
0.0
 10
590.5327330917413
 20
-11.37071163086491
 30
0.0
 10
590.9914258956711
 20
-11.49361799739091
 30
0.0
 10
591.1985326766887
 20
-11.8523374649467
 30
0.0
 10
591.4056394577108
 20
-12.21105693250346
 30
0.0
 10
591.2827330911836
 20
-12.66974973642975
 30
0.0
 10
590.9240136236284
 20
-12.8768565174512
 30
0.0
 10
590.5652941560733
 20
-13.08396329847266
 30
0.0
 10
590.1066013521472
 20
-12.96105693194665
 30
0.0
 10
589.8994945711258
 20
-12.60233746439022
 30
0.0
  0
SPLINE
  5
B3
330
1F
100
AcDbEntity
  8
_U_5716_U_5C64_1
 62
     5
100
AcDbSpline
210
0.0
220
0.0
230
1.0
 70
    11
 71
     3
 72
    17
 73
    13
 74
     0
 42
0.0000000001
 43
0.0000000001
 12
1.0
 22
0.0
 32
0.0
 13
1.0
 23
0.0
 33
0.0
 40
0.0
 40
0.0
 40
0.0
 40
0.0
 40
1.0
 40
1.0
 40
1.0
 40
2.0
 40
2.0
 40
2.0
 40
3.0
 40
3.0
 40
3.0
 40
4.0
 40
4.0
 40
4.0
 40
4.0
 10
585.4031932713835
 20
-16.29925779446023
 30
0.0
 10
585.1103000527435
 20
-16.00636457565043
 30
0.0
 10
585.1103000528808
 20
-15.5314908415843
 30
0.0
 10
585.4031932716941
 20
-15.23859762294519
 30
0.0
 10
585.696086490503
 20
-14.94570440430769
 30
0.0
 10
586.1709602245704
 20
-14.94570440444598
 30
0.0
 10
586.4638534432066
 20
-15.23859762325514
 30
0.0
 10
586.7567466618467
 20
-15.53149084206461
 30
0.0
 10
586.7567466617055
 20
-16.00636457613139
 30
0.0
 10
586.463853442896
 20
-16.29925779477017
 30
0.0
 10
586.1709602240873
 20
-16.59215101340864
 30
0.0
 10
585.6960864900198
 20
-16.59215101327003
 30
0.0
 10
585.4031932713835
 20
-16.29925779446023
 30
0.0
  0
SPLINE
  5
B4
330
1F
100
AcDbEntity
  8
_U_5716_U_5C64_1
 62
     5
100
AcDbSpline
210
0.0
220
0.0
230
1.0
 70
    11
 71
     3
 72
    17
 73
    13
 74
     0
 42
0.0000000001
 43
0.0000000001
 12
1.0
 22
0.0
 32
0.0
 13
1.0
 23
0.0
 33
0.0
 40
0.0
 40
0.0
 40
0.0
 40
0.0
 40
1.0
 40
1.0
 40
1.0
 40
2.0
 40
2.0
 40
2.0
 40
3.0
 40
3.0
 40
3.0
 40
4.0
 40
4.0
 40
4.0
 40
4.0
 10
582.0169331127972
 20
-21.03393702787559
 30
0.0
 10
581.6582136453621
 20
-20.8268302466443
 30
0.0
 10
581.5353072791037
 20
-20.36813744264678
 30
0.0
 10
581.7424140603363
 20
-20.00941797521066
 30
0.0
 10
581.9495208415663
 20
-19.65069850777615
 30
0.0
 10
582.4082136455628
 20
-19.52779214151774
 30
0.0
 10
582.766933112998
 20
-19.73489892274838
 30
0.0
 10
583.1256525804332
 20
-19.9420057039787
 30
0.0
 10
583.2485589466922
 20
-20.40069850797687
 30
0.0
 10
583.0414521654623
 20
-20.75941797541331
 30
0.0
 10
582.8343453842328
 20
-21.11813744284846
 30
0.0
 10
582.3756525802324
 20
-21.24104380910687
 30
0.0
 10
582.0169331127972
 20
-21.03393702787559
 30
0.0
  0
SPLINE
  5
B5
330
1F
100
AcDbEntity
  8
_U_5716_U_5C64_1
 62
     5
100
AcDbSpline
210
0.0
220
0.0
230
1.0
 70
    11
 71
     3
 72
    17
 73
    13
 74
     0
 42
0.0000000001
 43
0.0000000001
 12
1.0
 22
0.0
 32
0.0
 13
1.0
 23
0.0
 33
0.0
 40
0.0
 40
0.0
 40
0.0
 40
0.0
 40
1.0
 40
1.0
 40
1.0
 40
2.0
 40
2.0
 40
2.0
 40
3.0
 40
3.0
 40
3.0
 40
4.0
 40
4.0
 40
4.0
 40
4.0
 10
579.9714821291051
 20
-26.48371459932436
 30
0.0
 10
579.571382551767
 20
-26.3765082405513
 30
0.0
 10
579.3339456848588
 20
-25.96525552318796
 30
0.0
 10
579.4411520436312
 20
-25.56515594584669
 30
0.0
 10
579.548358402403
 20
-25.16505636850768
 30
0.0
 10
579.9596111197662
 20
-24.92761950159975
 30
0.0
 10
580.3597106971082
 20
-25.03482586037217
 30
0.0
 10
580.7598102744463
 20
-25.14203221914394
 30
0.0
 10
580.9972471413545
 20
-25.55328493650857
 30
0.0
 10
580.8900407825821
 20
-25.95338451384951
 30
0.0
 10
580.7828344238103
 20
-26.35348409118917
 30
0.0
 10
580.3715817064431
 20
-26.59092095809678
 30
0.0
 10
579.9714821291051
 20
-26.48371459932436
 30
0.0
  0
SPLINE
  5
B6
330
1F
100
AcDbEntity
  8
_U_5716_U_5C64_1
 62
     5
100
AcDbSpline
210
0.0
220
0.0
230
1.0
 70
    11
 71
     3
 72
    17
 73
    13
 74
     0
 42
0.0000000001
 43
0.0000000001
 12
1.0
 22
0.0
 32
0.0
 13
1.0
 23
0.0
 33
0.0
 40
0.0
 40
0.0
 40
0.0
 40
0.0
 40
1.0
 40
1.0
 40
1.0
 40
2.0
 40
2.0
 40
2.0
 40
3.0
 40
3.0
 40
3.0
 40
4.0
 40
4.0
 40
4.0
 40
4.0
 10
579.4062344245693
 20
-32.27719717351683
 30
0.0
 10
578.9920208623217
 20
-32.27719717338528
 30
0.0
 10
578.6562344248621
 20
-31.94141073571516
 30
0.0
 10
578.6562344249924
 20
-31.52719717346755
 30
0.0
 10
578.6562344251233
 20
-31.11298361122187
 30
0.0
 10
578.9920208627947
 20
-30.77719717376062
 30
0.0
 10
579.4062344250384
 20
-30.77719717389185
 30
0.0
 10
579.820447987286
 20
-30.77719717402179
 30
0.0
 10
580.1562344247457
 20
-31.11298361169352
 30
0.0
 10
580.1562344246154
 20
-31.52719717394048
 30
0.0
 10
580.1562344244884
 20
-31.94141073618616
 30
0.0
 10
579.8204479868131
 20
-32.27719717364742
 30
0.0
 10
579.4062344245693
 20
-32.27719717351683
 30
0.0
  0
SPLINE
  5
B7
330
1F
100
AcDbEntity
  8
_U_5716_U_5C64_1
 62
     5
100
AcDbSpline
210
0.0
220
0.0
230
1.0
 70
    11
 71
     3
 72
    17
 73
    13
 74
     0
 42
0.0000000001
 43
0.0000000001
 12
1.0
 22
0.0
 32
0.0
 13
1.0
 23
0.0
 33
0.0
 40
0.0
 40
0.0
 40
0.0
 40
0.0
 40
1.0
 40
1.0
 40
1.0
 40
2.0
 40
2.0
 40
2.0
 40
3.0
 40
3.0
 40
3.0
 40
4.0
 40
4.0
 40
4.0
 40
4.0
 10
580.3597106961308
 20
-38.0195684872271
 30
0.0
 10
579.9596111187261
 20
-38.1267748457454
 30
0.0
 10
579.5483584015103
 20
-37.88933797858078
 30
0.0
 10
579.4411520429888
 20
-37.48923840117247
 30
0.0
 10
579.3339456844706
 20
-37.08913882376544
 30
0.0
 10
579.5713825516367
 20
-36.67788610654936
 30
0.0
 10
579.9714821290415
 20
-36.57067974803041
 30
0.0
 10
580.3715817064501
 20
-36.46347338950954
 30
0.0
 10
580.7828344236652
 20
-36.70091025667608
 30
0.0
 10
580.8900407821868
 20
-37.10100983408375
 30
0.0
 10
580.997247140709
 20
-37.50110941149015
 30
0.0
 10
580.7598102735395
 20
-37.91236212870687
 30
0.0
 10
580.3597106961308
 20
-38.0195684872271
 30
0.0
  0
SPLINE
  5
B8
330
1F
100
AcDbEntity
  8
_U_5716_U_5C64_1
 62
     5
100
AcDbSpline
210
0.0
220
0.0
230
1.0
 70
    11
 71
     3
 72
    17
 73
    13
 74
     0
 42
0.0000000001
 43
0.0000000001
 12
1.0
 22
0.0
 32
0.0
 13
1.0
 23
0.0
 33
0.0
 40
0.0
 40
0.0
 40
0.0
 40
0.0
 40
1.0
 40
1.0
 40
1.0
 40
2.0
 40
2.0
 40
2.0
 40
3.0
 40
3.0
 40
3.0
 40
4.0
 40
4.0
 40
4.0
 40
4.0
 10
582.7669331115908
 20
-43.31949542516467
 30
0.0
 10
582.4082136440247
 20
-43.52660220616752
 30
0.0
 10
581.9495208401058
 20
-43.40369583962226
 30
0.0
 10
581.7424140590985
 20
-43.04497637205556
 30
0.0
 10
581.5353072780944
 20
-42.68625690449014
 30
0.0
 10
581.658213644639
 20
-42.22756410056898
 30
0.0
 10
582.0169331122044
 20
-42.02045731956517
 30
0.0
 10
582.3756525797704
 20
-41.81335053855977
 30
0.0
 10
582.8343453836893
 20
-41.93625690510694
 30
0.0
 10
583.0414521646967
 20
-42.29497637267269
 30
0.0
 10
583.248558945704
 20
-42.65369584023714
 30
0.0
 10
583.1256525791562
 20
-43.11238864415926
 30
0.0
 10
582.7669331115908
 20
-43.31949542516467
 30
0.0
  0
SPLINE
  5
B9
330
1F
100
AcDbEntity
  8
_U_5716_U_5C64_1
 62
     5
100
AcDbSpline
210
0.0
220
0.0
230
1.0
 70
    11
 71
     3
 72
    17
 73
    13
 74
     0
 42
0.0000000001
 43
0.0000000001
 12
1.0
 22
0.0
 32
0.0
 13
1.0
 23
0.0
 33
0.0
 40
0.0
 40
0.0
 40
0.0
 40
0.0
 40
1.0
 40
1.0
 40
1.0
 40
2.0
 40
2.0
 40
2.0
 40
3.0
 40
3.0
 40
3.0
 40
4.0
 40
4.0
 40
4.0
 40
4.0
 10
586.4638534414568
 20
-47.81579672507309
 30
0.0
 10
586.1709602226331
 20
-48.10868994369648
 30
0.0
 10
585.6960864885702
 20
-48.10868994353734
 30
0.0
 10
585.4031932699443
 20
-47.81579672471374
 30
0.0
 10
585.1103000513183
 20
-47.52290350589143
 30
0.0
 10
585.1103000514768
 20
-47.04802977182466
 30
0.0
 10
585.4031932703003
 20
-46.75513655320063
 30
0.0
 10
585.696086489124
 20
-46.46224333457532
 30
0.0
 10
586.1709602231907
 20
-46.46224333473607
 30
0.0
 10
586.4638534418167
 20
-46.75513655355806
 30
0.0
 10
586.7567466604427
 20
-47.04802977237973
 30
0.0
 10
586.7567466602803
 20
-47.52290350644778
 30
0.0
 10
586.4638534414568
 20
-47.81579672507309
 30
0.0
  0
SPLINE
  5
BA
330
1F
100
AcDbEntity
  8
_U_5716_U_5C64_1
 62
     5
100
AcDbSpline
210
0.0
220
0.0
230
1.0
 70
    11
 71
     3
 72
    17
 73
    13
 74
     0
 42
0.0000000001
 43
0.0000000001
 12
1.0
 22
0.0
 32
0.0
 13
1.0
 23
0.0
 33
0.0
 40
0.0
 40
0.0
 40
0.0
 40
0.0
 40
1.0
 40
1.0
 40
1.0
 40
2.0
 40
2.0
 40
2.0
 40
3.0
 40
3.0
 40
3.0
 40
4.0
 40
4.0
 40
4.0
 40
4.0
 10
591.1985326747206
 20
-51.20205688387082
 30
0.0
 10
590.9914258934733
 20
-51.56077635129507
 30
0.0
 10
590.5327330894729
 20
-51.68368271753359
 30
0.0
 10
590.1740136220448
 20
-51.47657593628562
 30
0.0
 10
589.8152941546199
 20
-51.26946915503893
 30
0.0
 10
589.6923877883795
 20
-50.81077635103595
 30
0.0
 10
589.8994945696262
 20
-50.45205688361042
 30
0.0
 10
590.1066013508773
 20
-50.09333741618394
 30
0.0
 10
590.5652941548777
 20
-49.97043104994798
 30
0.0
 10
590.9240136223058
 20
-50.1775378311937
 30
0.0
 10
591.2827330897308
 20
-50.38464461243943
 30
0.0
 10
591.405639455968
 20
-50.84333741644401
 30
0.0
 10
591.1985326747206
 20
-51.20205688387082
 30
0.0
  0
SPLINE
  5
BB
330
1F
100
AcDbEntity
  8
_U_5716_U_5C64_1
 62
     5
100
AcDbSpline
210
0.0
220
0.0
230
1.0
 70
    11
 71
     3
 72
    17
 73
    13
 74
     0
 42
0.0000000001
 43
0.0000000001
 12
1.0
 22
0.0
 32
0.0
 13
1.0
 23
0.0
 33
0.0
 40
0.0
 40
0.0
 40
0.0
 40
0.0
 40
1.0
 40
1.0
 40
1.0
 40
2.0
 40
2.0
 40
2.0
 40
3.0
 40
3.0
 40
3.0
 40
4.0
 40
4.0
 40
4.0
 40
4.0
 10
596.6483102460776
 20
-53.24750786780818
 30
0.0
 10
596.5411038872879
 20
-53.64760744514174
 30
0.0
 10
596.1298511699136
 20
-53.88504431203138
 30
0.0
 10
595.7297515925756
 20
-53.77783795323972
 30
0.0
 10
595.3296520152414
 20
-53.67063159444997
 30
0.0
 10
595.0922151483543
 20
-53.25937887707572
 30
0.0
 10
595.199421507144
 20
-52.85927929974088
 30
0.0
 10
595.3066278659338
 20
-52.45917972240475
 30
0.0
 10
595.7178805833074
 20
-52.22174285551767
 30
0.0
 10
596.1179801606454
 20
-52.32894921430677
 30
0.0
 10
596.5180797379803
 20
-52.43615557309587
 30
0.0
 10
596.7555166048674
 20
-52.84740829047205
 30
0.0
 10
596.6483102460776
 20
-53.24750786780818
 30
0.0
  0
SPLINE
  5
BC
330
1F
100
AcDbEntity
  8
_U_5716_U_5C64_1
 62
     5
100
AcDbSpline
210
0.0
220
0.0
230
1.0
 70
    11
 71
     3
 72
    17
 73
    13
 74
     0
 42
0.0000000001
 43
0.0000000001
 12
1.0
 22
0.0
 32
0.0
 13
1.0
 23
0.0
 33
0.0
 40
0.0
 40
0.0
 40
0.0
 40
0.0
 40
1.0
 40
1.0
 40
1.0
 40
2.0
 40
2.0
 40
2.0
 40
3.0
 40
3.0
 40
3.0
 40
4.0
 40
4.0
 40
4.0
 40
4.0
 10
602.441792820247
 20
-53.81275557260441
 30
0.0
 10
602.441792820095
 20
-54.22696913485009
 30
0.0
 10
602.10600638241
 20
-54.56275557229561
 30
0.0
 10
601.6917928201624
 20
-54.5627555721461
 30
0.0
 10
601.2775792579148
 20
-54.56275557199723
 30
0.0
 10
600.9417928204693
 20
-54.22696913431234
 30
0.0
 10
600.9417928206208
 20
-53.81275557206538
 30
0.0
 10
600.941792820769
 20
-53.39854200981842
 30
0.0
 10
601.2775792584545
 20
-53.06275557237481
 30
0.0
 10
601.6917928207021
 20
-53.06275557252241
 30
0.0
 10
602.1060063829497
 20
-53.06275557266999
 30
0.0
 10
602.4417928203952
 20
-53.39854201035873
 30
0.0
 10
602.441792820247
 20
-53.81275557260441
 30
0.0
  0
SPLINE
  5
BD
330
1F
100
AcDbEntity
  8
_U_5716_U_5C64_1
 62
     5
100
AcDbSpline
210
0.0
220
0.0
230
1.0
 70
    11
 71
     3
 72
    17
 73
    13
 74
     0
 42
0.0000000001
 43
0.0000000001
 12
1.0
 22
0.0
 32
0.0
 13
1.0
 23
0.0
 33
0.0
 40
0.0
 40
0.0
 40
0.0
 40
0.0
 40
1.0
 40
1.0
 40
1.0
 40
2.0
 40
2.0
 40
2.0
 40
3.0
 40
3.0
 40
3.0
 40
4.0
 40
4.0
 40
4.0
 40
4.0
 10
608.1841641339989
 20
-52.85927930129763
 30
0.0
 10
608.2913704924999
 20
-53.25937887870948
 30
0.0
 10
608.0539336253164
 20
-53.67063159591369
 30
0.0
 10
607.6538340479008
 20
-53.77783795441659
 30
0.0
 10
607.2537344704882
 20
-53.88504431291821
 30
0.0
 10
606.8424817532872
 20
-53.64760744573595
 30
0.0
 10
606.735275394783
 20
-53.24750786832282
 30
0.0
 10
606.6280690362827
 20
-52.84740829090969
 30
0.0
 10
606.8655059034662
 20
-52.43615557370677
 30
0.0
 10
607.2656054808781
 20
-52.32894921520258
 30
0.0
 10
607.6657050582905
 20
-52.22174285669968
 30
0.0
 10
608.0769577754947
 20
-52.45917972388579
 30
0.0
 10
608.1841641339989
 20
-52.85927930129763
 30
0.0
  0
SPLINE
  5
BE
330
1F
100
AcDbEntity
  8
_U_5716_U_5C64_1
 62
     5
100
AcDbSpline
210
0.0
220
0.0
230
1.0
 70
    11
 71
     3
 72
    17
 73
    13
 74
     0
 42
0.0000000001
 43
0.0000000001
 12
1.0
 22
0.0
 32
0.0
 13
1.0
 23
0.0
 33
0.0
 40
0.0
 40
0.0
 40
0.0
 40
0.0
 40
1.0
 40
1.0
 40
1.0
 40
2.0
 40
2.0
 40
2.0
 40
3.0
 40
3.0
 40
3.0
 40
4.0
 40
4.0
 40
4.0
 40
4.0
 10
613.4840910720457
 20
-50.4520568860784
 30
0.0
 10
613.6911978530318
 20
-50.81077635365409
 30
0.0
 10
613.5682914864667
 20
-51.26946915756851
 30
0.0
 10
613.2095720188903
 20
-51.47657593855788
 30
0.0
 10
612.850852551314
 20
-51.68368271954596
 30
0.0
 10
612.3921597473983
 20
-51.56077635298017
 30
0.0
 10
612.1850529664122
 20
-51.20205688540448
 30
0.0
 10
611.9779461854222
 20
-50.8433374178288
 30
0.0
 10
612.1008525519911
 20
-50.38464461391469
 30
0.0
 10
612.4595720195636
 20
-50.17753783292468
 30
0.0
 10
612.8182914871405
 20
-49.97043105193532
 30
0.0
 10
613.2769842910562
 20
-50.09333741850368
 30
0.0
 10
613.4840910720457
 20
-50.4520568860784
 30
0.0
  0
SPLINE
  5
BF
330
1F
100
AcDbEntity
  8
_U_5716_U_5C64_1
 62
     5
100
AcDbSpline
210
0.0
220
0.0
230
1.0
 70
    11
 71
     3
 72
    17
 73
    13
 74
     0
 42
0.0000000001
 43
0.0000000001
 12
1.0
 22
0.0
 32
0.0
 13
1.0
 23
0.0
 33
0.0
 40
0.0
 40
0.0
 40
0.0
 40
0.0
 40
1.0
 40
1.0
 40
1.0
 40
2.0
 40
2.0
 40
2.0
 40
3.0
 40
3.0
 40
3.0
 40
4.0
 40
4.0
 40
4.0
 40
4.0
 10
617.9803923721196
 20
-46.75513655641201
 30
0.0
 10
618.2732855907276
 20
-47.04802977524812
 30
0.0
 10
618.2732855905518
 20
-47.52290350931361
 30
0.0
 10
617.9803923717102
 20
-47.81579672792673
 30
0.0
 10
617.6874991528764
 20
-48.10868994653792
 30
0.0
 10
617.2126254188096
 20
-48.10868994635761
 30
0.0
 10
616.9197322001977
 20
-47.81579672752182
 30
0.0
 10
616.6268389815859
 20
-47.52290350868475
 30
0.0
 10
616.6268389817694
 20
-47.04802977461958
 30
0.0
 10
616.9197322006033
 20
-46.75513655600646
 30
0.0
 10
617.212625419441
 20
-46.46224333739367
 30
0.0
 10
617.6874991535078
 20
-46.46224333757623
 30
0.0
 10
617.9803923721196
 20
-46.75513655641201
 30
0.0
  0
SPLINE
  5
C0
330
1F
100
AcDbEntity
  8
_U_5716_U_5C64_1
 62
     5
100
AcDbSpline
210
0.0
220
0.0
230
1.0
 70
    11
 71
     3
 72
    17
 73
    13
 74
     0
 42
0.0000000001
 43
0.0000000001
 12
1.0
 22
0.0
 32
0.0
 13
1.0
 23
0.0
 33
0.0
 40
0.0
 40
0.0
 40
0.0
 40
0.0
 40
1.0
 40
1.0
 40
1.0
 40
2.0
 40
2.0
 40
2.0
 40
3.0
 40
3.0
 40
3.0
 40
4.0
 40
4.0
 40
4.0
 40
4.0
 10
621.3666525311295
 20
-42.0204573233005
 30
0.0
 10
621.7253719985434
 20
-42.22756410456451
 30
0.0
 10
621.8482783647634
 20
-42.68625690857198
 30
0.0
 10
621.641171583498
 20
-43.04497637599013
 30
0.0
 10
621.4340648022334
 20
-43.40369584340636
 30
0.0
 10
620.9753719982259
 20
-43.5266022096237
 30
0.0
 10
620.616652530812
 20
-43.31949542836097
 30
0.0
 10
620.2579330633941
 20
-43.11238864709632
 30
0.0
 10
620.1350266971781
 20
-42.65369584308821
 30
0.0
 10
620.3421334784395
 20
-42.29497637567038
 30
0.0
 10
620.5492402597002
 20
-41.93625690825351
 30
0.0
 10
621.0079330637116
 20
-41.81335054203809
 30
0.0
 10
621.3666525311295
 20
-42.0204573233005
 30
0.0
  0
SPLINE
  5
C1
330
1F
100
AcDbEntity
  8
_U_5716_U_5C64_1
 62
     5
100
AcDbSpline
210
0.0
220
0.0
230
1.0
 70
    11
 71
     3
 72
    17
 73
    13
 74
     0
 42
0.0000000001
 43
0.0000000001
 12
1.0
 22
0.0
 32
0.0
 13
1.0
 23
0.0
 33
0.0
 40
0.0
 40
0.0
 40
0.0
 40
0.0
 40
1.0
 40
1.0
 40
1.0
 40
2.0
 40
2.0
 40
2.0
 40
3.0
 40
3.0
 40
3.0
 40
4.0
 40
4.0
 40
4.0
 40
4.0
 10
623.412103515312
 20
-36.57067975203525
 30
0.0
 10
623.812203092639
 20
-36.67788611084457
 30
0.0
 10
624.049639959512
 20
-37.08913882822878
 30
0.0
 10
623.9424336007011
 20
-37.48923840556073
 30
0.0
 10
623.8352272418934
 20
-37.88933798289076
 30
0.0
 10
623.4239745245088
 20
-38.12677484976115
 30
0.0
 10
623.0238749471786
 20
-38.01956849095344
 30
0.0
 10
622.6237753698475
 20
-37.91236213214317
 30
0.0
 10
622.3863385029778
 20
-37.50110941475864
 30
0.0
 10
622.4935448617855
 20
-37.10100983742701
 30
0.0
 10
622.6007512205925
 20
-36.70091026009666
 30
0.0
 10
623.0120039379809
 20
-36.46347339322755
 30
0.0
 10
623.412103515312
 20
-36.57067975203525
 30
0.0
  0
SPLINE
  5
C2
330
1F
100
AcDbEntity
  8
_U_5716_U_5C64_1
 62
     5
100
AcDbSpline
210
0.0
220
0.0
230
1.0
 70
    11
 71
     3
 72
    17
 73
    13
 74
     0
 42
0.0000000001
 43
0.0000000001
 12
1.0
 22
0.0
 32
0.0
 13
1.0
 23
0.0
 33
0.0
 40
0.0
 40
0.0
 40
0.0
 40
0.0
 40
1.0
 40
1.0
 40
1.0
 40
2.0
 40
2.0
 40
2.0
 40
3.0
 40
3.0
 40
3.0
 40
4.0
 40
4.0
 40
4.0
 40
4.0
 10
623.9773512203693
 20
-30.77719717789348
 30
0.0
 10
624.3915647826137
 20
-30.77719717806289
 30
0.0
 10
624.7273512200451
 20
-31.11298361576253
 30
0.0
 10
624.7273512198757
 20
-31.52719717801014
 30
0.0
 10
624.7273512197063
 20
-31.94141074025646
 30
0.0
 10
624.3915647820066
 20
-32.27719717768659
 30
0.0
 10
623.9773512197629
 20
-32.27719717751943
 30
0.0
 10
623.5631376575153
 20
-32.2771971773497
 30
0.0
 10
623.2273512200838
 20
-31.94141073964941
 30
0.0
 10
623.2273512202534
 20
-31.52719717740181
 30
0.0
 10
623.2273512204189
 20
-31.11298361515581
 30
0.0
 10
623.5631376581224
 20
-30.777197177726
 30
0.0
 10
623.9773512203693
 20
-30.77719717789348
 30
0.0
  0
SPLINE
  5
C3
330
1F
100
AcDbEntity
  8
_U_5716_U_5C64_1
 62
     5
100
AcDbSpline
210
0.0
220
0.0
230
1.0
 70
    11
 71
     3
 72
    17
 73
    13
 74
     0
 42
0.0000000001
 43
0.0000000001
 12
1.0
 22
0.0
 32
0.0
 13
1.0
 23
0.0
 33
0.0
 40
0.0
 40
0.0
 40
0.0
 40
0.0
 40
1.0
 40
1.0
 40
1.0
 40
2.0
 40
2.0
 40
2.0
 40
3.0
 40
3.0
 40
3.0
 40
4.0
 40
4.0
 40
4.0
 40
4.0
 10
623.0238749493192
 20
-25.03482586409787
 30
0.0
 10
623.4239745267349
 20
-24.9276195056155
 30
0.0
 10
623.8352272439295
 20
-25.16505637281637
 30
0.0
 10
623.9424336024118
 20
-25.56515595023463
 30
0.0
 10
624.0496399608987
 20
-25.96525552765193
 30
0.0
 10
623.812203093694
 20
-26.37650824484555
 30
0.0
 10
623.4121035162783
 20
-26.48371460332985
 30
0.0
 10
623.0120039388594
 20
-26.59092096181222
 30
0.0
 10
622.6007512216687
 20
-26.35348409461103
 30
0.0
 10
622.4935448631818
 20
-25.95338451719276
 30
0.0
 10
622.3863385046994
 20
-25.55328493977611
 30
0.0
 10
622.6237753719042
 20
-25.14203222258217
 30
0.0
 10
623.0238749493192
 20
-25.03482586409787
 30
0.0
  0
SPLINE
  5
C4
330
1F
100
AcDbEntity
  8
_U_5716_U_5C64_1
 62
     5
100
AcDbSpline
210
0.0
220
0.0
230
1.0
 70
    11
 71
     3
 72
    17
 73
    13
 74
     0
 42
0.0000000001
 43
0.0000000001
 12
1.0
 22
0.0
 32
0.0
 13
1.0
 23
0.0
 33
0.0
 40
0.0
 40
0.0
 40
0.0
 40
0.0
 40
1.0
 40
1.0
 40
1.0
 40
2.0
 40
2.0
 40
2.0
 40
3.0
 40
3.0
 40
3.0
 40
4.0
 40
4.0
 40
4.0
 40
4.0
 10
620.6166525343393
 20
-19.73489892594404
 30
0.0
 10
620.9753720019228
 20
-19.52779214497328
 30
0.0
 10
621.4340648058313
 20
-19.6506985115596
 30
0.0
 10
621.6411715868035
 20
-20.00941797914492
 30
0.0
 10
621.8482783677755
 20
-20.36813744672959
 30
0.0
 10
621.7253720011892
 20
-20.82683025063888
 30
0.0
 10
621.3666525336057
 20
-21.03393703161124
 30
0.0
 10
621.0079330660185
 20
-21.24104381258232
 30
0.0
 10
620.5492402621098
 20
-21.11813744599567
 30
0.0
 10
620.3421334811378
 20
-20.75941797841068
 30
0.0
 10
620.1350267001658
 20
-20.40069851082697
 30
0.0
 10
620.2579330667528
 20
-19.94200570691672
 30
0.0
 10
620.6166525343393
 20
-19.73489892594404
 30
0.0
  0
SPLINE
  5
C5
330
1F
100
AcDbEntity
  8
_U_5716_U_5C64_1
 62
     5
100
AcDbSpline
210
0.0
220
0.0
230
1.0
 70
    11
 71
     3
 72
    17
 73
    13
 74
     0
 42
0.0000000001
 43
0.0000000001
 12
1.0
 22
0.0
 32
0.0
 13
1.0
 23
0.0
 33
0.0
 40
0.0
 40
0.0
 40
0.0
 40
0.0
 40
1.0
 40
1.0
 40
1.0
 40
2.0
 40
2.0
 40
2.0
 40
3.0
 40
3.0
 40
3.0
 40
4.0
 40
4.0
 40
4.0
 40
4.0
 10
616.9197322048719
 20
-15.23859762570322
 30
0.0
 10
617.2126254237198
 20
-14.94570440710614
 30
0.0
 10
617.6874991577873
 20
-14.94570440730796
 30
0.0
 10
617.9803923763882
 20
-15.23859762615786
 30
0.0
 10
618.273285594986
 20
-15.53149084500745
 30
0.0
 10
618.2732855947844
 20
-16.00636457907326
 30
0.0
 10
617.9803923759371
 20
-16.2992577976713
 30
0.0
 10
617.6874991570853
 20
-16.59215101626901
 30
0.0
 10
617.2126254230178
 20
-16.5921510160672
 30
0.0
 10
616.9197322044208
 20
-16.29925779721761
 30
0.0
 10
616.6268389858192
 20
-16.00636457836963
 30
0.0
 10
616.6268389860239
 20
-15.53149084430222
 30
0.0
 10
616.9197322048719
 20
-15.23859762570322
 30
0.0
  0
SPLINE
  5
C6
330
1F
100
AcDbEntity
  8
_U_5716_U_5C64_1
 62
     5
100
AcDbSpline
210
0.0
220
0.0
230
1.0
 70
    11
 71
     3
 72
    17
 73
    13
 74
     0
 42
0.0000000001
 43
0.0000000001
 12
1.0
 22
0.0
 32
0.0
 13
1.0
 23
0.0
 33
0.0
 40
0.0
 40
0.0
 40
0.0
 40
0.0
 40
1.0
 40
1.0
 40
1.0
 40
2.0
 40
2.0
 40
2.0
 40
3.0
 40
3.0
 40
3.0
 40
4.0
 40
4.0
 40
4.0
 40
4.0
 10
612.1850529719153
 20
-11.85233746648036
 30
0.0
 10
612.3921597531942
 20
-11.49361799907441
 30
0.0
 10
612.8508525572055
 20
-11.37071163287792
 30
0.0
 10
613.2095720246156
 20
-11.57781841415765
 30
0.0
 10
613.5682914920225
 20
-11.78492519543738
 30
0.0
 10
613.6911978582174
 20
-12.24361799945095
 30
0.0
 10
613.4840910769425
 20
-12.60233746685755
 30
0.0
 10
613.2769842956599
 20
-12.96105693426447
 30
0.0
 10
612.8182914916453
 20
-13.08396330046128
 30
0.0
 10
612.4595720242384
 20
-12.87685651918187
 30
0.0
 10
612.1008525568315
 20
-12.66974973790374
 30
0.0
 10
611.9779461906365
 20
-12.21105693388793
 30
0.0
 10
612.1850529719153
 20
-11.85233746648036
 30
0.0
  0
SPLINE
  5
C7
330
1F
100
AcDbEntity
  8
_U_5716_U_5C64_1
 62
     5
100
AcDbSpline
210
0.0
220
0.0
230
1.0
 70
    11
 71
     3
 72
    17
 73
    13
 74
     0
 42
0.0000000001
 43
0.0000000001
 12
1.0
 22
0.0
 32
0.0
 13
1.0
 23
0.0
 33
0.0
 40
0.0
 40
0.0
 40
0.0
 40
0.0
 40
1.0
 40
1.0
 40
1.0
 40
2.0
 40
2.0
 40
2.0
 40
3.0
 40
3.0
 40
3.0
 40
4.0
 40
4.0
 40
4.0
 40
4.0
 10
606.7352754007419
 20
-9.806886482054033
 30
0.0
 10
606.8424817595669
 20
-9.406786904729458
 30
0.0
 10
607.2537344769617
 20
-9.169350037877672
 30
0.0
 10
607.6538340542895
 20
-9.276556396703992
 30
0.0
 10
608.0539336316134
 20
-9.383762755530954
 30
0.0
 10
608.2913704984652
 20
-9.795015472926066
 30
0.0
 10
608.1841641396402
 20
-10.19511505025096
 30
0.0
 10
608.0769577808113
 20
-10.59521462757682
 30
0.0
 10
607.6657050634165
 20
-10.83265149442828
 30
0.0
 10
607.2656054860926
 20
-10.72544513560228
 30
0.0
 10
606.8655059087648
 20
-10.61823877677725
 30
0.0
 10
606.628069041913
 20
-10.20698605937925
 30
0.0
 10
606.7352754007419
 20
-9.806886482054033
 30
0.0
  0
SPLINE
  5
C8
330
1F
100
AcDbEntity
  8
_U_5716_U_5C64_1
 62
     7
100
AcDbSpline
210
0.0
220
0.0
230
1.0
 70
    11
 71
     3
 72
    17
 73
    13
 74
     0
 42
0.0000000001
 43
0.0000000001
 12
1.0
 22
0.0
 32
0.0
 13
1.0
 23
0.0
 33
0.0
 40
0.0
 40
0.0
 40
0.0
 40
0.0
 40
1.0
 40
1.0
 40
1.0
 40
2.0
 40
2.0
 40
2.0
 40
3.0
 40
3.0
 40
3.0
 40
4.0
 40
4.0
 40
4.0
 40
4.0
 10
696.5370863002995
 20
-4.277195218129564
 30
0.0
 10
681.0731292593515
 20
-4.277195218129564
 30
0.0
 10
668.5370942757763
 20
-16.81323020170345
 30
0.0
 10
668.5370942757763
 20
-32.27718724265083
 30
0.0
 10
668.5370942757763
 20
-47.74116581544499
 30
0.0
 10
681.0731292593515
 20
-60.27720079901889
 30
0.0
 10
696.5370863002995
 20
-60.27720079901889
 30
0.0
 10
712.0010648730923
 20
-60.27720079901889
 30
0.0
 10
724.5370998566675
 20
-47.74116581544499
 30
0.0
 10
724.5370998566675
 20
-32.27718724265083
 30
0.0
 10
724.5370998566675
 20
-16.81323020170345
 30
0.0
 10
712.0010648730923
 20
-4.277195218129564
 30
0.0
 10
696.5370863002995
 20
-4.277195218129564
 30
0.0
  0
SPLINE
  5
C9
330
1F
100
AcDbEntity
  8
_U_5716_U_5C64_1
 62
     5
100
AcDbSpline
210
0.0
220
0.0
230
1.0
 70
    11
 71
     3
 72
    17
 73
    13
 74
     0
 42
0.0000000001
 43
0.0000000001
 12
1.0
 22
0.0
 32
0.0
 13
1.0
 23
0.0
 33
0.0
 40
0.0
 40
0.0
 40
0.0
 40
0.0
 40
1.0
 40
1.0
 40
1.0
 40
2.0
 40
2.0
 40
2.0
 40
3.0
 40
3.0
 40
3.0
 40
4.0
 40
4.0
 40
4.0
 40
4.0
 10
696.5370863002995
 20
-34.77720690890951
 30
0.0
 10
695.1563781571965
 20
-34.77720690890951
 30
0.0
 10
694.037088165887
 20
-33.65791691759862
 30
0.0
 10
694.037088165887
 20
-32.27718724265083
 30
0.0
 10
694.037088165887
 20
-30.89647909954983
 30
0.0
 10
695.1563781571965
 20
-29.77718910823894
 30
0.0
 10
696.5370863002995
 20
-29.77718910823894
 30
0.0
 10
697.9178159752466
 20
-29.77718910823894
 30
0.0
 10
699.037084434712
 20
-30.89647909954983
 30
0.0
 10
699.037084434712
 20
-32.27718724265083
 30
0.0
 10
699.037084434712
 20
-33.65791691759862
 30
0.0
 10
697.9178159752466
 20
-34.77720690890951
 30
0.0
 10
696.5370863002995
 20
-34.77720690890951
 30
0.0
  0
SPLINE
  5
CA
330
1F
100
AcDbEntity
  8
_U_5716_U_5C64_1
 62
     5
100
AcDbSpline
210
0.0
220
0.0
230
1.0
 70
    11
 71
     3
 72
    17
 73
    13
 74
     0
 42
0.0000000001
 43
0.0000000001
 12
1.0
 22
0.0
 32
0.0
 13
1.0
 23
0.0
 33
0.0
 40
0.0
 40
0.0
 40
0.0
 40
0.0
 40
1.0
 40
1.0
 40
1.0
 40
2.0
 40
2.0
 40
2.0
 40
3.0
 40
3.0
 40
3.0
 40
4.0
 40
4.0
 40
4.0
 40
4.0
 10
695.7870963935395
 20
-9.991639694851683
 30
0.0
 10
695.7870963936492
 20
-9.577426132605362
 30
0.0
 10
696.1228828313066
 20
-9.241639695129672
 30
0.0
 10
696.5370963935535
 20
-9.241639695241329
 30
0.0
 10
696.9513099558011
 20
-9.241639695352983
 30
0.0
 10
697.2870963932749
 20
-9.577426133009633
 30
0.0
 10
697.287096393162
 20
-9.991639695255953
 30
0.0
 10
697.2870963930528
 20
-10.40585325750227
 30
0.0
 10
696.9513099553956
 20
-10.74163969497796
 30
0.0
 10
696.537096393148
 20
-10.74163969486631
 30
0.0
 10
696.1228828309042
 20
-10.74163969475465
 30
0.0
 10
695.7870963934266
 20
-10.405853257098
 30
0.0
 10
695.7870963935395
 20
-9.991639694851683
 30
0.0
  0
SPLINE
  5
CB
330
1F
100
AcDbEntity
  8
_U_5716_U_5C64_1
 62
     5
100
AcDbSpline
210
0.0
220
0.0
230
1.0
 70
    11
 71
     3
 72
    17
 73
    13
 74
     0
 42
0.0000000001
 43
0.0000000001
 12
1.0
 22
0.0
 32
0.0
 13
1.0
 23
0.0
 33
0.0
 40
0.0
 40
0.0
 40
0.0
 40
0.0
 40
1.0
 40
1.0
 40
1.0
 40
2.0
 40
2.0
 40
2.0
 40
3.0
 40
3.0
 40
3.0
 40
4.0
 40
4.0
 40
4.0
 40
4.0
 10
690.0447250798723
 20
-10.94511596667406
 30
0.0
 10
689.9375187213328
 20
-10.54501638927152
 30
0.0
 10
690.174955588481
 20
-10.13376367204549
 30
0.0
 10
690.5750551658826
 20
-10.0265573135073
 30
0.0
 10
690.9751547432874
 20
-9.91935095496878
 30
0.0
 10
691.3864074605134
 20
-10.15678782211639
 30
0.0
 10
691.4936138190529
 20
-10.55688739951861
 30
0.0
 10
691.6008201775885
 20
-10.95698697692147
 30
0.0
 10
691.3633833104403
 20
-11.36823969414749
 30
0.0
 10
690.9632837330387
 20
-11.47544605268601
 30
0.0
 10
690.5631841556371
 20
-11.58265241122453
 30
0.0
 10
690.1519314384118
 20
-11.34521554407692
 30
0.0
 10
690.0447250798723
 20
-10.94511596667406
 30
0.0
  0
SPLINE
  5
CC
330
1F
100
AcDbEntity
  8
_U_5716_U_5C64_1
 62
     5
100
AcDbSpline
210
0.0
220
0.0
230
1.0
 70
    11
 71
     3
 72
    17
 73
    13
 74
     0
 42
0.0000000001
 43
0.0000000001
 12
1.0
 22
0.0
 32
0.0
 13
1.0
 23
0.0
 33
0.0
 40
0.0
 40
0.0
 40
0.0
 40
0.0
 40
1.0
 40
1.0
 40
1.0
 40
2.0
 40
2.0
 40
2.0
 40
3.0
 40
3.0
 40
3.0
 40
4.0
 40
4.0
 40
4.0
 40
4.0
 10
684.7447981420405
 20
-13.35233838236944
 30
0.0
 10
684.537691361023
 20
-12.99361891481268
 30
0.0
 10
684.6605977275458
 20
-12.53492611088638
 30
0.0
 10
685.0193171951048
 20
-12.32781932986493
 30
0.0
 10
685.37803666266
 20
-12.12071254884412
 30
0.0
 10
685.8367294665866
 20
-12.24361891537013
 30
0.0
 10
686.0438362476074
 20
-12.60233838292592
 30
0.0
 10
686.2509430286294
 20
-12.96105785048268
 30
0.0
 10
686.1280366621021
 20
-13.41975065440897
 30
0.0
 10
685.7693171945469
 20
-13.62685743543042
 30
0.0
 10
685.4105977269918
 20
-13.83396421645187
 30
0.0
 10
684.951904923062
 20
-13.71105784992587
 30
0.0
 10
684.7447981420405
 20
-13.35233838236944
 30
0.0
  0
SPLINE
  5
CD
330
1F
100
AcDbEntity
  8
_U_5716_U_5C64_1
 62
     5
100
AcDbSpline
210
0.0
220
0.0
230
1.0
 70
    11
 71
     3
 72
    17
 73
    13
 74
     0
 42
0.0000000001
 43
0.0000000001
 12
1.0
 22
0.0
 32
0.0
 13
1.0
 23
0.0
 33
0.0
 40
0.0
 40
0.0
 40
0.0
 40
0.0
 40
1.0
 40
1.0
 40
1.0
 40
2.0
 40
2.0
 40
2.0
 40
3.0
 40
3.0
 40
3.0
 40
4.0
 40
4.0
 40
4.0
 40
4.0
 10
680.2484968422983
 20
-17.04925871243945
 30
0.0
 10
679.9556036236621
 20
-16.75636549362965
 30
0.0
 10
679.9556036237994
 20
-16.28149175956352
 30
0.0
 10
680.2484968426089
 20
-15.98859854092441
 30
0.0
 10
680.5413900614184
 20
-15.69570532228691
 30
0.0
 10
681.0162637954852
 20
-15.6957053224252
 30
0.0
 10
681.3091570141253
 20
-15.98859854123435
 30
0.0
 10
681.6020502327615
 20
-16.28149176004383
 30
0.0
 10
681.6020502326242
 20
-16.7563654941106
 30
0.0
 10
681.3091570138147
 20
-17.04925871274939
 30
0.0
 10
681.0162637950058
 20
-17.34215193138786
 30
0.0
 10
680.5413900609384
 20
-17.34215193124925
 30
0.0
 10
680.2484968422983
 20
-17.04925871243945
 30
0.0
  0
SPLINE
  5
CE
330
1F
100
AcDbEntity
  8
_U_5716_U_5C64_1
 62
     5
100
AcDbSpline
210
0.0
220
0.0
230
1.0
 70
    11
 71
     3
 72
    17
 73
    13
 74
     0
 42
0.0000000001
 43
0.0000000001
 12
1.0
 22
0.0
 32
0.0
 13
1.0
 23
0.0
 33
0.0
 40
0.0
 40
0.0
 40
0.0
 40
0.0
 40
1.0
 40
1.0
 40
1.0
 40
2.0
 40
2.0
 40
2.0
 40
3.0
 40
3.0
 40
3.0
 40
4.0
 40
4.0
 40
4.0
 40
4.0
 10
676.8622366837159
 20
-21.78393794585481
 30
0.0
 10
676.5035172162808
 20
-21.57683116462352
 30
0.0
 10
676.3806108500223
 20
-21.118138360626
 30
0.0
 10
676.5877176312517
 20
-20.75941889318988
 30
0.0
 10
676.7948244124849
 20
-20.40069942575537
 30
0.0
 10
677.2535172164814
 20
-20.27779305949695
 30
0.0
 10
677.6122366839166
 20
-20.4848998407276
 30
0.0
 10
677.9709561513517
 20
-20.69200662195792
 30
0.0
 10
678.0938625176108
 20
-21.15069942595608
 30
0.0
 10
677.8867557363776
 20
-21.50941889339252
 30
0.0
 10
677.6796489551483
 20
-21.86813836082768
 30
0.0
 10
677.2209561511511
 20
-21.99104472708609
 30
0.0
 10
676.8622366837159
 20
-21.78393794585481
 30
0.0
  0
SPLINE
  5
CF
330
1F
100
AcDbEntity
  8
_U_5716_U_5C64_1
 62
     5
100
AcDbSpline
210
0.0
220
0.0
230
1.0
 70
    11
 71
     3
 72
    17
 73
    13
 74
     0
 42
0.0000000001
 43
0.0000000001
 12
1.0
 22
0.0
 32
0.0
 13
1.0
 23
0.0
 33
0.0
 40
0.0
 40
0.0
 40
0.0
 40
0.0
 40
1.0
 40
1.0
 40
1.0
 40
2.0
 40
2.0
 40
2.0
 40
3.0
 40
3.0
 40
3.0
 40
4.0
 40
4.0
 40
4.0
 40
4.0
 10
674.8167857000199
 20
-27.23371551730358
 30
0.0
 10
674.4166861226824
 20
-27.12650915853052
 30
0.0
 10
674.1792492557735
 20
-26.71525644116717
 30
0.0
 10
674.286455614546
 20
-26.31515686382592
 30
0.0
 10
674.3936619733183
 20
-25.9150572864869
 30
0.0
 10
674.8049146906849
 20
-25.67762041957897
 30
0.0
 10
675.205014268023
 20
-25.78482677835138
 30
0.0
 10
675.6051138453648
 20
-25.89203313712316
 30
0.0
 10
675.8425507122693
 20
-26.30328585448779
 30
0.0
 10
675.7353443534975
 20
-26.70338543182873
 30
0.0
 10
675.628137994729
 20
-27.10348500916838
 30
0.0
 10
675.2168852773617
 20
-27.340921876076
 30
0.0
 10
674.8167857000199
 20
-27.23371551730358
 30
0.0
  0
SPLINE
  5
D0
330
1F
100
AcDbEntity
  8
_U_5716_U_5C64_1
 62
     5
100
AcDbSpline
210
0.0
220
0.0
230
1.0
 70
    11
 71
     3
 72
    17
 73
    13
 74
     0
 42
0.0000000001
 43
0.0000000001
 12
1.0
 22
0.0
 32
0.0
 13
1.0
 23
0.0
 33
0.0
 40
0.0
 40
0.0
 40
0.0
 40
0.0
 40
1.0
 40
1.0
 40
1.0
 40
2.0
 40
2.0
 40
2.0
 40
3.0
 40
3.0
 40
3.0
 40
4.0
 40
4.0
 40
4.0
 40
4.0
 10
674.2515379954841
 20
-33.02719809149605
 30
0.0
 10
673.8373244332404
 20
-33.0271980913645
 30
0.0
 10
673.5015379957769
 20
-32.69141165369437
 30
0.0
 10
673.5015379959078
 20
-32.27719809144677
 30
0.0
 10
673.5015379960419
 20
-31.86298452920109
 30
0.0
 10
673.8373244337133
 20
-31.52719809173984
 30
0.0
 10
674.251537995957
 20
-31.52719809187107
 30
0.0
 10
674.6657515582046
 20
-31.52719809200101
 30
0.0
 10
675.0015379956643
 20
-31.86298452967274
 30
0.0
 10
675.001537995534
 20
-32.2771980919197
 30
0.0
 10
675.0015379954032
 20
-32.69141165416538
 30
0.0
 10
674.6657515577317
 20
-33.02719809162663
 30
0.0
 10
674.2515379954841
 20
-33.02719809149605
 30
0.0
  0
SPLINE
  5
D1
330
1F
100
AcDbEntity
  8
_U_5716_U_5C64_1
 62
     5
100
AcDbSpline
210
0.0
220
0.0
230
1.0
 70
    11
 71
     3
 72
    17
 73
    13
 74
     0
 42
0.0000000001
 43
0.0000000001
 12
1.0
 22
0.0
 32
0.0
 13
1.0
 23
0.0
 33
0.0
 40
0.0
 40
0.0
 40
0.0
 40
0.0
 40
1.0
 40
1.0
 40
1.0
 40
2.0
 40
2.0
 40
2.0
 40
3.0
 40
3.0
 40
3.0
 40
4.0
 40
4.0
 40
4.0
 40
4.0
 10
675.2050142670495
 20
-38.76956940520663
 30
0.0
 10
674.8049146896448
 20
-38.87677576372462
 30
0.0
 10
674.393661972429
 20
-38.63933889656033
 30
0.0
 10
674.2864556139075
 20
-38.23923931915169
 30
0.0
 10
674.1792492553859
 20
-37.83913974174465
 30
0.0
 10
674.4166861225515
 20
-37.42788702452857
 30
0.0
 10
674.8167856999602
 20
-37.32068066600963
 30
0.0
 10
675.2168852773688
 20
-37.21347430748876
 30
0.0
 10
675.6281379945807
 20
-37.45091117465498
 30
0.0
 10
675.7353443531022
 20
-37.85101075206298
 30
0.0
 10
675.8425507116237
 20
-38.25111032946936
 30
0.0
 10
675.6051138444582
 20
-38.66236304668608
 30
0.0
 10
675.2050142670495
 20
-38.76956940520663
 30
0.0
  0
SPLINE
  5
D2
330
1F
100
AcDbEntity
  8
_U_5716_U_5C64_1
 62
     5
100
AcDbSpline
210
0.0
220
0.0
230
1.0
 70
    11
 71
     3
 72
    17
 73
    13
 74
     0
 42
0.0000000001
 43
0.0000000001
 12
1.0
 22
0.0
 32
0.0
 13
1.0
 23
0.0
 33
0.0
 40
0.0
 40
0.0
 40
0.0
 40
0.0
 40
1.0
 40
1.0
 40
1.0
 40
2.0
 40
2.0
 40
2.0
 40
3.0
 40
3.0
 40
3.0
 40
4.0
 40
4.0
 40
4.0
 40
4.0
 10
677.6122366825056
 20
-44.06949634314389
 30
0.0
 10
677.2535172149401
 20
-44.27660312414673
 30
0.0
 10
676.7948244110205
 20
-44.15369675760148
 30
0.0
 10
676.5877176300171
 20
-43.79497729003477
 30
0.0
 10
676.3806108490097
 20
-43.43625782246935
 30
0.0
 10
676.5035172155575
 20
-42.9775650185482
 30
0.0
 10
676.862236683123
 20
-42.77045823754439
 30
0.0
 10
677.2209561506891
 20
-42.56335145653898
 30
0.0
 10
677.679648954608
 20
-42.68625782308616
 30
0.0
 10
677.8867557356152
 20
-43.0449772906519
 30
0.0
 10
678.0938625166194
 20
-43.40369675821636
 30
0.0
 10
677.9709561500716
 20
-43.86238956213848
 30
0.0
 10
677.6122366825056
 20
-44.06949634314389
 30
0.0
  0
SPLINE
  5
D3
330
1F
100
AcDbEntity
  8
_U_5716_U_5C64_1
 62
     5
100
AcDbSpline
210
0.0
220
0.0
230
1.0
 70
    11
 71
     3
 72
    17
 73
    13
 74
     0
 42
0.0000000001
 43
0.0000000001
 12
1.0
 22
0.0
 32
0.0
 13
1.0
 23
0.0
 33
0.0
 40
0.0
 40
0.0
 40
0.0
 40
0.0
 40
1.0
 40
1.0
 40
1.0
 40
2.0
 40
2.0
 40
2.0
 40
3.0
 40
3.0
 40
3.0
 40
4.0
 40
4.0
 40
4.0
 40
4.0
 10
681.3091570123753
 20
-48.56579764305199
 30
0.0
 10
681.0162637935517
 20
-48.8586908616757
 30
0.0
 10
680.5413900594888
 20
-48.85869086151624
 30
0.0
 10
680.2484968408628
 20
-48.56579764269296
 30
0.0
 10
679.9556036222369
 20
-48.27290442387065
 30
0.0
 10
679.9556036223954
 20
-47.79803068980388
 30
0.0
 10
680.248496841219
 20
-47.50513747117985
 30
0.0
 10
680.5413900600425
 20
-47.21224425255454
 30
0.0
 10
681.0162637941062
 20
-47.21224425271529
 30
0.0
 10
681.3091570127353
 20
-47.50513747153727
 30
0.0
 10
681.6020502313575
 20
-47.79803069035895
 30
0.0
 10
681.602050231199
 20
-48.272904424427
 30
0.0
 10
681.3091570123753
 20
-48.56579764305199
 30
0.0
  0
SPLINE
  5
D4
330
1F
100
AcDbEntity
  8
_U_5716_U_5C64_1
 62
     5
100
AcDbSpline
210
0.0
220
0.0
230
1.0
 70
    11
 71
     3
 72
    17
 73
    13
 74
     0
 42
0.0000000001
 43
0.0000000001
 12
1.0
 22
0.0
 32
0.0
 13
1.0
 23
0.0
 33
0.0
 40
0.0
 40
0.0
 40
0.0
 40
0.0
 40
1.0
 40
1.0
 40
1.0
 40
2.0
 40
2.0
 40
2.0
 40
3.0
 40
3.0
 40
3.0
 40
4.0
 40
4.0
 40
4.0
 40
4.0
 10
686.0438362456392
 20
-51.95205780185004
 30
0.0
 10
685.836729464392
 20
-52.31077726927493
 30
0.0
 10
685.3780366603877
 20
-52.43368363551217
 30
0.0
 10
685.0193171929595
 20
-52.22657685426484
 30
0.0
 10
684.6605977255354
 20
-52.01947007301751
 30
0.0
 10
684.537691359298
 20
-51.56077726901454
 30
0.0
 10
684.7447981405447
 20
-51.20205780158901
 30
0.0
 10
684.9519049217921
 20
-50.84333833416348
 30
0.0
 10
685.4105977257964
 20
-50.72043196792752
 30
0.0
 10
685.7693171932244
 20
-50.92753874917292
 30
0.0
 10
686.1280366606493
 20
-51.13464553041833
 30
0.0
 10
686.2509430268866
 20
-51.59333833442387
 30
0.0
 10
686.0438362456392
 20
-51.95205780185004
 30
0.0
  0
SPLINE
  5
D5
330
1F
100
AcDbEntity
  8
_U_5716_U_5C64_1
 62
     5
100
AcDbSpline
210
0.0
220
0.0
230
1.0
 70
    11
 71
     3
 72
    17
 73
    13
 74
     0
 42
0.0000000001
 43
0.0000000001
 12
1.0
 22
0.0
 32
0.0
 13
1.0
 23
0.0
 33
0.0
 40
0.0
 40
0.0
 40
0.0
 40
0.0
 40
1.0
 40
1.0
 40
1.0
 40
2.0
 40
2.0
 40
2.0
 40
3.0
 40
3.0
 40
3.0
 40
4.0
 40
4.0
 40
4.0
 40
4.0
 10
691.4936138169962
 20
-53.99750878578676
 30
0.0
 10
691.3864074582065
 20
-54.3976083631216
 30
0.0
 10
690.9751547408323
 20
-54.63504523000996
 30
0.0
 10
690.5750551634942
 20
-54.52783887121958
 30
0.0
 10
690.17495558616
 20
-54.42063251242919
 30
0.0
 10
689.9375187192691
 20
-54.00937979505493
 30
0.0
 10
690.0447250780627
 20
-53.60928021771945
 30
0.0
 10
690.1519314368525
 20
-53.20918064038461
 30
0.0
 10
690.5631841542261
 20
-52.97174377349753
 30
0.0
 10
690.963283731564
 20
-53.07895013228535
 30
0.0
 10
691.363383308899
 20
-53.18615649107509
 30
0.0
 10
691.600820175786
 20
-53.59740920845191
 30
0.0
 10
691.4936138169962
 20
-53.99750878578676
 30
0.0
  0
SPLINE
  5
D6
330
1F
100
AcDbEntity
  8
_U_5716_U_5C64_1
 62
     5
100
AcDbSpline
210
0.0
220
0.0
230
1.0
 70
    11
 71
     3
 72
    17
 73
    13
 74
     0
 42
0.0000000001
 43
0.0000000001
 12
1.0
 22
0.0
 32
0.0
 13
1.0
 23
0.0
 33
0.0
 40
0.0
 40
0.0
 40
0.0
 40
0.0
 40
1.0
 40
1.0
 40
1.0
 40
2.0
 40
2.0
 40
2.0
 40
3.0
 40
3.0
 40
3.0
 40
4.0
 40
4.0
 40
4.0
 40
4.0
 10
697.2870963911618
 20
-54.56275649058427
 30
0.0
 10
697.2870963910135
 20
-54.97697005282995
 30
0.0
 10
696.9513099533286
 20
-55.31275649027484
 30
0.0
 10
696.537096391081
 20
-55.31275649012596
 30
0.0
 10
696.1228828288334
 20
-55.3127564899758
 30
0.0
 10
695.7870963913879
 20
-54.97697005229092
 30
0.0
 10
695.7870963915361
 20
-54.56275649004396
 30
0.0
 10
695.7870963916876
 20
-54.148542927797
 30
0.0
 10
696.1228828293731
 20
-53.81275649035339
 30
0.0
 10
696.5370963916207
 20
-53.81275649050098
 30
0.0
 10
696.9513099538683
 20
-53.81275649064985
 30
0.0
 10
697.2870963913139
 20
-54.14854292833731
 30
0.0
 10
697.2870963911618
 20
-54.56275649058427
 30
0.0
  0
SPLINE
  5
D7
330
1F
100
AcDbEntity
  8
_U_5716_U_5C64_1
 62
     5
100
AcDbSpline
210
0.0
220
0.0
230
1.0
 70
    11
 71
     3
 72
    17
 73
    13
 74
     0
 42
0.0000000001
 43
0.0000000001
 12
1.0
 22
0.0
 32
0.0
 13
1.0
 23
0.0
 33
0.0
 40
0.0
 40
0.0
 40
0.0
 40
0.0
 40
1.0
 40
1.0
 40
1.0
 40
2.0
 40
2.0
 40
2.0
 40
3.0
 40
3.0
 40
3.0
 40
4.0
 40
4.0
 40
4.0
 40
4.0
 10
703.0294677049144
 20
-53.60928021927749
 30
0.0
 10
703.1366740634186
 20
-54.00937979668934
 30
0.0
 10
702.899237196235
 20
-54.42063251389355
 30
0.0
 10
702.4991376188193
 20
-54.52783887239581
 30
0.0
 10
702.0990380414069
 20
-54.63504523089679
 30
0.0
 10
701.6877853242027
 20
-54.39760836371453
 30
0.0
 10
701.5805789657023
 20
-53.9975087863014
 30
0.0
 10
701.4733726072013
 20
-53.59740920888827
 30
0.0
 10
701.7108094743849
 20
-53.18615649168535
 30
0.0
 10
702.1109090517967
 20
-53.0789501331818
 30
0.0
 10
702.5110086292092
 20
-52.9717437746789
 30
0.0
 10
702.9222613464134
 20
-53.20918064186436
 30
0.0
 10
703.0294677049144
 20
-53.60928021927749
 30
0.0
  0
SPLINE
  5
D8
330
1F
100
AcDbEntity
  8
_U_5716_U_5C64_1
 62
     5
100
AcDbSpline
210
0.0
220
0.0
230
1.0
 70
    11
 71
     3
 72
    17
 73
    13
 74
     0
 42
0.0000000001
 43
0.0000000001
 12
1.0
 22
0.0
 32
0.0
 13
1.0
 23
0.0
 33
0.0
 40
0.0
 40
0.0
 40
0.0
 40
0.0
 40
1.0
 40
1.0
 40
1.0
 40
2.0
 40
2.0
 40
2.0
 40
3.0
 40
3.0
 40
3.0
 40
4.0
 40
4.0
 40
4.0
 40
4.0
 10
708.329394642961
 20
-51.20205780405826
 30
0.0
 10
708.5365014239504
 20
-51.56077727163267
 30
0.0
 10
708.4135950573852
 20
-52.01947007554709
 30
0.0
 10
708.0548755898051
 20
-52.22657685653709
 30
0.0
 10
707.6961561222327
 20
-52.43368363752454
 30
0.0
 10
707.2374633183169
 20
-52.31077727095939
 30
0.0
 10
707.030356537327
 20
-51.95205780338434
 30
0.0
 10
706.8232497563407
 20
-51.59333833580737
 30
0.0
 10
706.9461561229066
 20
-51.13464553189424
 30
0.0
 10
707.3048755904822
 20
-50.92753875090423
 30
0.0
 10
707.6635950580553
 20
-50.72043196991422
 30
0.0
 10
708.1222878619749
 20
-50.84333833648257
 30
0.0
 10
708.329394642961
 20
-51.20205780405826
 30
0.0
  0
SPLINE
  5
D9
330
1F
100
AcDbEntity
  8
_U_5716_U_5C64_1
 62
     5
100
AcDbSpline
210
0.0
220
0.0
230
1.0
 70
    11
 71
     3
 72
    17
 73
    13
 74
     0
 42
0.0000000001
 43
0.0000000001
 12
1.0
 22
0.0
 32
0.0
 13
1.0
 23
0.0
 33
0.0
 40
0.0
 40
0.0
 40
0.0
 40
0.0
 40
1.0
 40
1.0
 40
1.0
 40
2.0
 40
2.0
 40
2.0
 40
3.0
 40
3.0
 40
3.0
 40
4.0
 40
4.0
 40
4.0
 40
4.0
 10
712.825695943035
 20
-47.50513747439123
 30
0.0
 10
713.1185891616462
 20
-47.79803069322734
 30
0.0
 10
713.1185891614665
 20
-48.27290442729251
 30
0.0
 10
712.8256959426288
 20
-48.56579764590563
 30
0.0
 10
712.5328027237917
 20
-48.85869086451714
 30
0.0
 10
712.0579289897282
 20
-48.85869086433683
 30
0.0
 10
711.7650357711163
 20
-48.56579764550104
 30
0.0
 10
711.4721425525046
 20
-48.27290442666396
 30
0.0
 10
711.4721425526849
 20
-47.79803069259848
 30
0.0
 10
711.7650357715219
 20
-47.50513747398536
 30
0.0
 10
712.0579289903558
 20
-47.21224425537288
 30
0.0
 10
712.5328027244232
 20
-47.21224425555545
 30
0.0
 10
712.825695943035
 20
-47.50513747439123
 30
0.0
  0
SPLINE
  5
DA
330
1F
100
AcDbEntity
  8
_U_5716_U_5C64_1
 62
     5
100
AcDbSpline
210
0.0
220
0.0
230
1.0
 70
    11
 71
     3
 72
    17
 73
    13
 74
     0
 42
0.0000000001
 43
0.0000000001
 12
1.0
 22
0.0
 32
0.0
 13
1.0
 23
0.0
 33
0.0
 40
0.0
 40
0.0
 40
0.0
 40
0.0
 40
1.0
 40
1.0
 40
1.0
 40
2.0
 40
2.0
 40
2.0
 40
3.0
 40
3.0
 40
3.0
 40
4.0
 40
4.0
 40
4.0
 40
4.0
 10
716.211956102048
 20
-42.77045824127972
 30
0.0
 10
716.5706755694621
 20
-42.97756502254374
 30
0.0
 10
716.6935819356819
 20
-43.4362578265512
 30
0.0
 10
716.4864751544167
 20
-43.79497729396967
 30
0.0
 10
716.279368373152
 20
-44.15369676138558
 30
0.0
 10
715.8206755691446
 20
-44.27660312760293
 30
0.0
 10
715.4619561017267
 20
-44.06949634634019
 30
0.0
 10
715.1032366343095
 20
-43.86238956507554
 30
0.0
 10
714.9803302680934
 20
-43.40369676106743
 30
0.0
 10
715.1874370493581
 20
-43.0449772936496
 30
0.0
 10
715.3945438306189
 20
-42.68625782623273
 30
0.0
 10
715.8532366346302
 20
-42.56335146001699
 30
0.0
 10
716.211956102048
 20
-42.77045824127972
 30
0.0
  0
SPLINE
  5
DB
330
1F
100
AcDbEntity
  8
_U_5716_U_5C64_1
 62
     5
100
AcDbSpline
210
0.0
220
0.0
230
1.0
 70
    11
 71
     3
 72
    17
 73
    13
 74
     0
 42
0.0000000001
 43
0.0000000001
 12
1.0
 22
0.0
 32
0.0
 13
1.0
 23
0.0
 33
0.0
 40
0.0
 40
0.0
 40
0.0
 40
0.0
 40
1.0
 40
1.0
 40
1.0
 40
2.0
 40
2.0
 40
2.0
 40
3.0
 40
3.0
 40
3.0
 40
4.0
 40
4.0
 40
4.0
 40
4.0
 10
718.2574070862305
 20
-37.32068067001448
 30
0.0
 10
718.6575066635577
 20
-37.42788702882411
 30
0.0
 10
718.8949435304274
 20
-37.83913974620799
 30
0.0
 10
718.7877371716197
 20
-38.23923932353963
 30
0.0
 10
718.680530812812
 20
-38.63933890086997
 30
0.0
 10
718.2692780954275
 20
-38.87677576774037
 30
0.0
 10
717.8691785180971
 20
-38.76956940893266
 30
0.0
 10
717.4690789407662
 20
-38.6623630501227
 30
0.0
 10
717.2316420738964
 20
-38.25111033273786
 30
0.0
 10
717.3388484327041
 20
-37.85101075540622
 30
0.0
 10
717.4460547915112
 20
-37.45091117807588
 30
0.0
 10
717.8573075088996
 20
-37.21347431120644
 30
0.0
 10
718.2574070862305
 20
-37.32068067001448
 30
0.0
  0
SPLINE
  5
DC
330
1F
100
AcDbEntity
  8
_U_5716_U_5C64_1
 62
     5
100
AcDbSpline
210
0.0
220
0.0
230
1.0
 70
    11
 71
     3
 72
    17
 73
    13
 74
     0
 42
0.0000000001
 43
0.0000000001
 12
1.0
 22
0.0
 32
0.0
 13
1.0
 23
0.0
 33
0.0
 40
0.0
 40
0.0
 40
0.0
 40
0.0
 40
1.0
 40
1.0
 40
1.0
 40
2.0
 40
2.0
 40
2.0
 40
3.0
 40
3.0
 40
3.0
 40
4.0
 40
4.0
 40
4.0
 40
4.0
 10
718.8226547912848
 20
-31.5271980958727
 30
0.0
 10
719.2368683535324
 20
-31.52719809604211
 30
0.0
 10
719.5726547909605
 20
-31.86298453374175
 30
0.0
 10
719.5726547907943
 20
-32.27719809598936
 30
0.0
 10
719.5726547906249
 20
-32.69141165823568
 30
0.0
 10
719.2368683529253
 20
-33.02719809566581
 30
0.0
 10
718.8226547906784
 20
-33.02719809549865
 30
0.0
 10
718.4084412284308
 20
-33.02719809532891
 30
0.0
 10
718.0726547910025
 20
-32.69141165762863
 30
0.0
 10
718.072654791168
 20
-32.27719809538102
 30
0.0
 10
718.0726547913375
 20
-31.86298453313503
 30
0.0
 10
718.4084412290409
 20
-31.52719809570522
 30
0.0
 10
718.8226547912848
 20
-31.5271980958727
 30
0.0
  0
SPLINE
  5
DD
330
1F
100
AcDbEntity
  8
_U_5716_U_5C64_1
 62
     5
100
AcDbSpline
210
0.0
220
0.0
230
1.0
 70
    11
 71
     3
 72
    17
 73
    13
 74
     0
 42
0.0000000001
 43
0.0000000001
 12
1.0
 22
0.0
 32
0.0
 13
1.0
 23
0.0
 33
0.0
 40
0.0
 40
0.0
 40
0.0
 40
0.0
 40
1.0
 40
1.0
 40
1.0
 40
2.0
 40
2.0
 40
2.0
 40
3.0
 40
3.0
 40
3.0
 40
4.0
 40
4.0
 40
4.0
 40
4.0
 10
717.8691785202378
 20
-25.78482678207709
 30
0.0
 10
718.2692780976536
 20
-25.67762042359472
 30
0.0
 10
718.6805308148481
 20
-25.91505729079559
 30
0.0
 10
718.7877371733305
 20
-26.31515686821385
 30
0.0
 10
718.8949435318135
 20
-26.71525644563115
 30
0.0
 10
718.6575066646126
 20
-27.12650916282477
 30
0.0
 10
718.257407087197
 20
-27.23371552130907
 30
0.0
 10
717.857307509778
 20
-27.34092187979143
 30
0.0
 10
717.4460547925835
 20
-27.10348501259024
 30
0.0
 10
717.3388484341004
 20
-26.70338543517198
 30
0.0
 10
717.2316420756142
 20
-26.30328585775532
 30
0.0
 10
717.4690789428189
 20
-25.89203314056138
 30
0.0
 10
717.8691785202378
 20
-25.78482678207709
 30
0.0
  0
SPLINE
  5
DE
330
1F
100
AcDbEntity
  8
_U_5716_U_5C64_1
 62
     5
100
AcDbSpline
210
0.0
220
0.0
230
1.0
 70
    11
 71
     3
 72
    17
 73
    13
 74
     0
 42
0.0000000001
 43
0.0000000001
 12
1.0
 22
0.0
 32
0.0
 13
1.0
 23
0.0
 33
0.0
 40
0.0
 40
0.0
 40
0.0
 40
0.0
 40
1.0
 40
1.0
 40
1.0
 40
2.0
 40
2.0
 40
2.0
 40
3.0
 40
3.0
 40
3.0
 40
4.0
 40
4.0
 40
4.0
 40
4.0
 10
715.4619561052548
 20
-20.48489984392326
 30
0.0
 10
715.8206755728381
 20
-20.2777930629525
 30
0.0
 10
716.2793683767468
 20
-20.40069942953883
 30
0.0
 10
716.486475157722
 20
-20.75941889712414
 30
0.0
 10
716.693581938694
 20
-21.11813836470881
 30
0.0
 10
716.5706755721078
 20
-21.5768311686181
 30
0.0
 10
716.2119561045243
 20
-21.78393794959046
 30
0.0
 10
715.8532366369371
 20
-21.99104473056153
 30
0.0
 10
715.3945438330285
 20
-21.86813836397489
 30
0.0
 10
715.1874370520565
 20
-21.5094188963899
 30
0.0
 10
714.9803302710812
 20
-21.15069942880619
 30
0.0
 10
715.1032366376713
 20
-20.69200662489594
 30
0.0
 10
715.4619561052548
 20
-20.48489984392326
 30
0.0
  0
SPLINE
  5
DF
330
1F
100
AcDbEntity
  8
_U_5716_U_5C64_1
 62
     5
100
AcDbSpline
210
0.0
220
0.0
230
1.0
 70
    11
 71
     3
 72
    17
 73
    13
 74
     0
 42
0.0000000001
 43
0.0000000001
 12
1.0
 22
0.0
 32
0.0
 13
1.0
 23
0.0
 33
0.0
 40
0.0
 40
0.0
 40
0.0
 40
0.0
 40
1.0
 40
1.0
 40
1.0
 40
2.0
 40
2.0
 40
2.0
 40
3.0
 40
3.0
 40
3.0
 40
4.0
 40
4.0
 40
4.0
 40
4.0
 10
711.7650357757905
 20
-15.98859854368244
 30
0.0
 10
712.0579289946385
 20
-15.69570532508536
 30
0.0
 10
712.5328027287059
 20
-15.69570532528717
 30
0.0
 10
712.8256959473036
 20
-15.98859854413708
 30
0.0
 10
713.1185891659007
 20
-16.28149176298666
 30
0.0
 10
713.1185891656999
 20
-16.75636549705247
 30
0.0
 10
712.8256959468519
 20
-17.04925871565051
 30
0.0
 10
712.532802728
 20
-17.34215193424823
 30
0.0
 10
712.0579289939365
 20
-17.34215193404642
 30
0.0
 10
711.7650357753355
 20
-17.04925871519683
 30
0.0
 10
711.4721425567378
 20
-16.75636549634885
 30
0.0
 10
711.4721425569426
 20
-16.28149176228144
 30
0.0
 10
711.7650357757905
 20
-15.98859854368244
 30
0.0
  0
SPLINE
  5
E0
330
1F
100
AcDbEntity
  8
_U_5716_U_5C64_1
 62
     5
100
AcDbSpline
210
0.0
220
0.0
230
1.0
 70
    11
 71
     3
 72
    17
 73
    13
 74
     0
 42
0.0000000001
 43
0.0000000001
 12
1.0
 22
0.0
 32
0.0
 13
1.0
 23
0.0
 33
0.0
 40
0.0
 40
0.0
 40
0.0
 40
0.0
 40
1.0
 40
1.0
 40
1.0
 40
2.0
 40
2.0
 40
2.0
 40
3.0
 40
3.0
 40
3.0
 40
4.0
 40
4.0
 40
4.0
 40
4.0
 10
707.0303565428301
 20
-12.60233838445958
 30
0.0
 10
707.2374633241095
 20
-12.24361891705362
 30
0.0
 10
707.696156128124
 20
-12.12071255085713
 30
0.0
 10
708.054875595531
 20
-12.32781933213687
 30
0.0
 10
708.4135950629379
 20
-12.5349261134166
 30
0.0
 10
708.536501429136
 20
-12.99361891743017
 30
0.0
 10
708.3293946478573
 20
-13.35233838483677
 30
0.0
 10
708.1222878665745
 20
-13.71105785224369
 30
0.0
 10
707.6635950625639
 20
-13.8339642184405
 30
0.0
 10
707.3048755951531
 20
-13.62685743716109
 30
0.0
 10
706.9461561277462
 20
-13.41975065588295
 30
0.0
 10
706.8232497615513
 20
-12.96105785186714
 30
0.0
 10
707.0303565428301
 20
-12.60233838445958
 30
0.0
  0
SPLINE
  5
E1
330
1F
100
AcDbEntity
  8
_U_5716_U_5C64_1
 62
     5
100
AcDbSpline
210
0.0
220
0.0
230
1.0
 70
    11
 71
     3
 72
    17
 73
    13
 74
     0
 42
0.0000000001
 43
0.0000000001
 12
1.0
 22
0.0
 32
0.0
 13
1.0
 23
0.0
 33
0.0
 40
0.0
 40
0.0
 40
0.0
 40
0.0
 40
1.0
 40
1.0
 40
1.0
 40
2.0
 40
2.0
 40
2.0
 40
3.0
 40
3.0
 40
3.0
 40
4.0
 40
4.0
 40
4.0
 40
4.0
 10
701.5805789716567
 20
-10.55688740003325
 30
0.0
 10
701.6877853304856
 20
-10.15678782270868
 30
0.0
 10
702.0990380478803
 20
-9.91935095585689
 30
0.0
 10
702.4991376252049
 20
-10.02655731468321
 30
0.0
 10
702.899237202532
 20
-10.13376367351017
 30
0.0
 10
703.1366740693838
 20
-10.54501639090528
 30
0.0
 10
703.0294677105587
 20
-10.94511596823018
 30
0.0
 10
702.9222613517298
 20
-11.34521554555604
 30
0.0
 10
702.5110086343351
 20
-11.5826524124075
 30
0.0
 10
702.1109090570073
 20
-11.4754460535815
 30
0.0
 10
701.7108094796833
 20
-11.36823969475647
 30
0.0
 10
701.4733726128316
 20
-10.95698697735847
 30
0.0
 10
701.5805789716567
 20
-10.55688740003325
 30
0.0
  0
SPLINE
  5
E2
330
1F
100
AcDbEntity
  8
_U_5716_U_5C64_1
 62
     7
100
AcDbSpline
210
0.0
220
0.0
230
1.0
 70
    11
 71
     3
 72
    17
 73
    13
 74
     0
 42
0.0000000001
 43
0.0000000001
 12
1.0
 22
0.0
 32
0.0
 13
1.0
 23
0.0
 33
0.0
 40
0.0
 40
0.0
 40
0.0
 40
0.0
 40
1.0
 40
1.0
 40
1.0
 40
2.0
 40
2.0
 40
2.0
 40
3.0
 40
3.0
 40
3.0
 40
4.0
 40
4.0
 40
4.0
 40
4.0
 10
650.1284334199588
 20
-39.80004357469788
 30
0.0
 10
634.664476379014
 20
-39.80004357469788
 30
0.0
 10
622.1284413954388
 20
-52.33607855827177
 30
0.0
 10
622.1284413954388
 20
-67.80003559921916
 30
0.0
 10
622.1284413954388
 20
-83.26401417201332
 30
0.0
 10
634.664476379014
 20
-95.8000491555872
 30
0.0
 10
650.1284334199588
 20
-95.8000491555872
 30
0.0
 10
665.5924119927556
 20
-95.8000491555872
 30
0.0
 10
678.1284469763269
 20
-83.26401417201332
 30
0.0
 10
678.1284469763269
 20
-67.80003559921916
 30
0.0
 10
678.1284469763269
 20
-52.33607855827177
 30
0.0
 10
665.5924119927556
 20
-39.80004357469788
 30
0.0
 10
650.1284334199588
 20
-39.80004357469788
 30
0.0
  0
SPLINE
  5
E3
330
1F
100
AcDbEntity
  8
_U_5716_U_5C64_1
 62
     5
100
AcDbSpline
210
0.0
220
0.0
230
1.0
 70
    11
 71
     3
 72
    17
 73
    13
 74
     0
 42
0.0000000001
 43
0.0000000001
 12
1.0
 22
0.0
 32
0.0
 13
1.0
 23
0.0
 33
0.0
 40
0.0
 40
0.0
 40
0.0
 40
0.0
 40
1.0
 40
1.0
 40
1.0
 40
2.0
 40
2.0
 40
2.0
 40
3.0
 40
3.0
 40
3.0
 40
4.0
 40
4.0
 40
4.0
 40
4.0
 10
650.1284334199588
 20
-70.30005526547782
 30
0.0
 10
648.7477252768598
 20
-70.30005526547782
 30
0.0
 10
647.6284352855463
 20
-69.18076527416694
 30
0.0
 10
647.6284352855463
 20
-67.80003559921916
 30
0.0
 10
647.6284352855463
 20
-66.41932745611815
 30
0.0
 10
648.7477252768598
 20
-65.30003746480726
 30
0.0
 10
650.1284334199588
 20
-65.30003746480726
 30
0.0
 10
651.509163094906
 20
-65.30003746480726
 30
0.0
 10
652.6284315543713
 20
-66.41932745611815
 30
0.0
 10
652.6284315543713
 20
-67.80003559921916
 30
0.0
 10
652.6284315543713
 20
-69.18076527416694
 30
0.0
 10
651.509163094906
 20
-70.30005526547782
 30
0.0
 10
650.1284334199588
 20
-70.30005526547782
 30
0.0
  0
SPLINE
  5
E4
330
1F
100
AcDbEntity
  8
_U_5716_U_5C64_1
 62
     5
100
AcDbSpline
210
0.0
220
0.0
230
1.0
 70
    11
 71
     3
 72
    17
 73
    13
 74
     0
 42
0.0000000001
 43
0.0000000001
 12
1.0
 22
0.0
 32
0.0
 13
1.0
 23
0.0
 33
0.0
 40
0.0
 40
0.0
 40
0.0
 40
0.0
 40
1.0
 40
1.0
 40
1.0
 40
2.0
 40
2.0
 40
2.0
 40
3.0
 40
3.0
 40
3.0
 40
4.0
 40
4.0
 40
4.0
 40
4.0
 10
649.3784435131995
 20
-45.51448805142
 30
0.0
 10
649.3784435133125
 20
-45.10027448917368
 30
0.0
 10
649.7142299509698
 20
-44.76448805169799
 30
0.0
 10
650.1284435132168
 20
-44.76448805180965
 30
0.0
 10
650.5426570754611
 20
-44.7644880519213
 30
0.0
 10
650.8784435129381
 20
-45.10027448957795
 30
0.0
 10
650.8784435128251
 20
-45.51448805182427
 30
0.0
 10
650.8784435127122
 20
-45.92870161407059
 30
0.0
 10
650.5426570750587
 20
-46.26448805154628
 30
0.0
 10
650.1284435128111
 20
-46.26448805143463
 30
0.0
 10
649.7142299505635
 20
-46.26448805132297
 30
0.0
 10
649.3784435130898
 20
-45.92870161366632
 30
0.0
 10
649.3784435131995
 20
-45.51448805142
 30
0.0
  0
SPLINE
  5
E5
330
1F
100
AcDbEntity
  8
_U_5716_U_5C64_1
 62
     5
100
AcDbSpline
210
0.0
220
0.0
230
1.0
 70
    11
 71
     3
 72
    17
 73
    13
 74
     0
 42
0.0000000001
 43
0.0000000001
 12
1.0
 22
0.0
 32
0.0
 13
1.0
 23
0.0
 33
0.0
 40
0.0
 40
0.0
 40
0.0
 40
0.0
 40
1.0
 40
1.0
 40
1.0
 40
2.0
 40
2.0
 40
2.0
 40
3.0
 40
3.0
 40
3.0
 40
4.0
 40
4.0
 40
4.0
 40
4.0
 10
643.6360721995355
 20
-46.4679643232427
 30
0.0
 10
643.528865840996
 20
-46.06786474583983
 30
0.0
 10
643.7663027081443
 20
-45.65661202861381
 30
0.0
 10
644.1664022855458
 20
-45.54940567007561
 30
0.0
 10
644.5665018629473
 20
-45.44219931153774
 30
0.0
 10
644.9777545801728
 20
-45.67963617868503
 30
0.0
 10
645.0849609387122
 20
-46.07973575608661
 30
0.0
 10
645.1921672972518
 20
-46.47983533348947
 30
0.0
 10
644.9547304301035
 20
-46.8910880507155
 30
0.0
 10
644.554630852702
 20
-46.99829440925433
 30
0.0
 10
644.1545312752971
 20
-47.10550076779317
 30
0.0
 10
643.7432785580711
 20
-46.86806390064556
 30
0.0
 10
643.6360721995355
 20
-46.4679643232427
 30
0.0
  0
SPLINE
  5
E6
330
1F
100
AcDbEntity
  8
_U_5716_U_5C64_1
 62
     5
100
AcDbSpline
210
0.0
220
0.0
230
1.0
 70
    11
 71
     3
 72
    17
 73
    13
 74
     0
 42
0.0000000001
 43
0.0000000001
 12
1.0
 22
0.0
 32
0.0
 13
1.0
 23
0.0
 33
0.0
 40
0.0
 40
0.0
 40
0.0
 40
0.0
 40
1.0
 40
1.0
 40
1.0
 40
2.0
 40
2.0
 40
2.0
 40
3.0
 40
3.0
 40
3.0
 40
4.0
 40
4.0
 40
4.0
 40
4.0
 10
638.3361452617038
 20
-48.87518673893808
 30
0.0
 10
638.1290384806862
 20
-48.516467271381
 30
0.0
 10
638.251944847209
 20
-48.05777446745438
 30
0.0
 10
638.610664314768
 20
-47.85066768643357
 30
0.0
 10
638.9693837823231
 20
-47.64356090541276
 30
0.0
 10
639.4280765862491
 20
-47.76646727193877
 30
0.0
 10
639.6351833672705
 20
-48.12518673949392
 30
0.0
 10
639.842290148292
 20
-48.483906207051
 30
0.0
 10
639.7193837817654
 20
-48.94259901097761
 30
0.0
 10
639.360664314207
 20
-49.14970579199842
 30
0.0
 10
639.0019448466519
 20
-49.35681257302051
 30
0.0
 10
638.5432520427253
 20
-49.23390620649451
 30
0.0
 10
638.3361452617038
 20
-48.87518673893808
 30
0.0
  0
SPLINE
  5
E7
330
1F
100
AcDbEntity
  8
_U_5716_U_5C64_1
 62
     5
100
AcDbSpline
210
0.0
220
0.0
230
1.0
 70
    11
 71
     3
 72
    17
 73
    13
 74
     0
 42
0.0000000001
 43
0.0000000001
 12
1.0
 22
0.0
 32
0.0
 13
1.0
 23
0.0
 33
0.0
 40
0.0
 40
0.0
 40
0.0
 40
0.0
 40
1.0
 40
1.0
 40
1.0
 40
2.0
 40
2.0
 40
2.0
 40
3.0
 40
3.0
 40
3.0
 40
4.0
 40
4.0
 40
4.0
 40
4.0
 10
633.8398439619616
 20
-52.57210706900745
 30
0.0
 10
633.5469507433253
 20
-52.27921385019797
 30
0.0
 10
633.5469507434626
 20
-51.80434011613184
 30
0.0
 10
633.8398439622721
 20
-51.51144689749241
 30
0.0
 10
634.132737181081
 20
-51.21855367885555
 30
0.0
 10
634.6076109151484
 20
-51.21855367899352
 30
0.0
 10
634.9005041337846
 20
-51.51144689780299
 30
0.0
 10
635.1933973524247
 20
-51.80434011661183
 30
0.0
 10
635.1933973522873
 20
-52.2792138506786
 30
0.0
 10
634.900504133474
 20
-52.57210706931803
 30
0.0
 10
634.6076109146684
 20
-52.86500028795618
 30
0.0
 10
634.1327371806017
 20
-52.86500028781757
 30
0.0
 10
633.8398439619616
 20
-52.57210706900745
 30
0.0
  0
SPLINE
  5
E8
330
1F
100
AcDbEntity
  8
_U_5716_U_5C64_1
 62
     5
100
AcDbSpline
210
0.0
220
0.0
230
1.0
 70
    11
 71
     3
 72
    17
 73
    13
 74
     0
 42
0.0000000001
 43
0.0000000001
 12
1.0
 22
0.0
 32
0.0
 13
1.0
 23
0.0
 33
0.0
 40
0.0
 40
0.0
 40
0.0
 40
0.0
 40
1.0
 40
1.0
 40
1.0
 40
2.0
 40
2.0
 40
2.0
 40
3.0
 40
3.0
 40
3.0
 40
4.0
 40
4.0
 40
4.0
 40
4.0
 10
630.4535838033753
 20
-57.30678630242281
 30
0.0
 10
630.0948643359433
 20
-57.09967952119152
 30
0.0
 10
629.9719579696817
 20
-56.64098671719432
 30
0.0
 10
630.1790647509149
 20
-56.28226724975788
 30
0.0
 10
630.3861715321443
 20
-55.92354778232336
 30
0.0
 10
630.8448643361447
 20
-55.8006414160656
 30
0.0
 10
631.2035838035766
 20
-56.0077481972956
 30
0.0
 10
631.562303271015
 20
-56.21485497852624
 30
0.0
 10
631.6852096372702
 20
-56.67354778252472
 30
0.0
 10
631.4781028560409
 20
-57.03226724996052
 30
0.0
 10
631.2709960748108
 20
-57.39098671739632
 30
0.0
 10
630.8123032708104
 20
-57.51389308365409
 30
0.0
 10
630.4535838033753
 20
-57.30678630242281
 30
0.0
  0
SPLINE
  5
E9
330
1F
100
AcDbEntity
  8
_U_5716_U_5C64_1
 62
     5
100
AcDbSpline
210
0.0
220
0.0
230
1.0
 70
    11
 71
     3
 72
    17
 73
    13
 74
     0
 42
0.0000000001
 43
0.0000000001
 12
1.0
 22
0.0
 32
0.0
 13
1.0
 23
0.0
 33
0.0
 40
0.0
 40
0.0
 40
0.0
 40
0.0
 40
1.0
 40
1.0
 40
1.0
 40
2.0
 40
2.0
 40
2.0
 40
3.0
 40
3.0
 40
3.0
 40
4.0
 40
4.0
 40
4.0
 40
4.0
 10
628.408132819683
 20
-62.75656387387158
 30
0.0
 10
628.0080332423449
 20
-62.64935751509916
 30
0.0
 10
627.7705963754368
 20
-62.23810479773582
 30
0.0
 10
627.8778027342091
 20
-61.83800522039456
 30
0.0
 10
627.9850090929816
 20
-61.43790564305522
 30
0.0
 10
628.3962618103449
 20
-61.20046877614696
 30
0.0
 10
628.7963613876861
 20
-61.30767513491939
 30
0.0
 10
629.1964609650242
 20
-61.4148814936918
 30
0.0
 10
629.4338978319324
 20
-61.82613421105643
 30
0.0
 10
629.32669147316
 20
-62.22623378839705
 30
0.0
 10
629.2194851143882
 20
-62.62633336573638
 30
0.0
 10
628.808232397025
 20
-62.86377023264399
 30
0.0
 10
628.408132819683
 20
-62.75656387387158
 30
0.0
  0
SPLINE
  5
EA
330
1F
100
AcDbEntity
  8
_U_5716_U_5C64_1
 62
     5
100
AcDbSpline
210
0.0
220
0.0
230
1.0
 70
    11
 71
     3
 72
    17
 73
    13
 74
     0
 42
0.0000000001
 43
0.0000000001
 12
1.0
 22
0.0
 32
0.0
 13
1.0
 23
0.0
 33
0.0
 40
0.0
 40
0.0
 40
0.0
 40
0.0
 40
1.0
 40
1.0
 40
1.0
 40
2.0
 40
2.0
 40
2.0
 40
3.0
 40
3.0
 40
3.0
 40
4.0
 40
4.0
 40
4.0
 40
4.0
 10
627.8428851151474
 20
-68.55004644806469
 30
0.0
 10
627.4286715528997
 20
-68.5500464479325
 30
0.0
 10
627.0928851154401
 20
-68.21426001026302
 30
0.0
 10
627.092885115571
 20
-67.80004644801477
 30
0.0
 10
627.0928851157013
 20
-67.38583288576909
 30
0.0
 10
627.4286715533726
 20
-67.05004644830815
 30
0.0
 10
627.8428851156202
 20
-67.0500464484397
 30
0.0
 10
628.2570986778641
 20
-67.05004644856933
 30
0.0
 10
628.5928851153237
 20
-67.38583288624137
 30
0.0
 10
628.5928851151966
 20
-67.80004644848835
 30
0.0
 10
628.5928851150663
 20
-68.21426001073402
 30
0.0
 10
628.257098677395
 20
-68.55004644819495
 30
0.0
 10
627.8428851151474
 20
-68.55004644806469
 30
0.0
  0
SPLINE
  5
EB
330
1F
100
AcDbEntity
  8
_U_5716_U_5C64_1
 62
     5
100
AcDbSpline
210
0.0
220
0.0
230
1.0
 70
    11
 71
     3
 72
    17
 73
    13
 74
     0
 42
0.0000000001
 43
0.0000000001
 12
1.0
 22
0.0
 32
0.0
 13
1.0
 23
0.0
 33
0.0
 40
0.0
 40
0.0
 40
0.0
 40
0.0
 40
1.0
 40
1.0
 40
1.0
 40
2.0
 40
2.0
 40
2.0
 40
3.0
 40
3.0
 40
3.0
 40
4.0
 40
4.0
 40
4.0
 40
4.0
 10
628.7963613867128
 20
-74.29241776177496
 30
0.0
 10
628.3962618093041
 20
-74.39962412029325
 30
0.0
 10
627.985009092089
 20
-74.16218725312896
 30
0.0
 10
627.8778027335668
 20
-73.76208767571968
 30
0.0
 10
627.7705963750492
 20
-73.36198809831298
 30
0.0
 10
628.0080332422148
 20
-72.95073538109722
 30
0.0
 10
628.4081328196233
 20
-72.84352902257763
 30
0.0
 10
628.8082323970282
 20
-72.73632266405676
 30
0.0
 10
629.2194851142439
 20
-72.97375953122362
 30
0.0
 10
629.3266914727654
 20
-73.3738591086316
 30
0.0
 10
629.4338978312869
 20
-73.77395868603769
 30
0.0
 10
629.1964609641213
 20
-74.18521140325409
 30
0.0
 10
628.7963613867128
 20
-74.29241776177496
 30
0.0
  0
SPLINE
  5
EC
330
1F
100
AcDbEntity
  8
_U_5716_U_5C64_1
 62
     5
100
AcDbSpline
210
0.0
220
0.0
230
1.0
 70
    11
 71
     3
 72
    17
 73
    13
 74
     0
 42
0.0000000001
 43
0.0000000001
 12
1.0
 22
0.0
 32
0.0
 13
1.0
 23
0.0
 33
0.0
 40
0.0
 40
0.0
 40
0.0
 40
0.0
 40
1.0
 40
1.0
 40
1.0
 40
2.0
 40
2.0
 40
2.0
 40
3.0
 40
3.0
 40
3.0
 40
4.0
 40
4.0
 40
4.0
 40
4.0
 10
631.2035838021687
 20
-79.59234469971189
 30
0.0
 10
630.8448643346034
 20
-79.79945148071474
 30
0.0
 10
630.3861715306838
 20
-79.67654511416947
 30
0.0
 10
630.1790647496764
 20
-79.31782564660277
 30
0.0
 10
629.971957968673
 20
-78.95910617903735
 30
0.0
 10
630.0948643352208
 20
-78.50041337511651
 30
0.0
 10
630.4535838027862
 20
-78.2933065941124
 30
0.0
 10
630.8123032703522
 20
-78.08619981310699
 30
0.0
 10
631.2709960742711
 20
-78.2091061796548
 30
0.0
 10
631.4781028552785
 20
-78.56782564722022
 30
0.0
 10
631.6852096362826
 20
-78.92654511478436
 30
0.0
 10
631.5623032697348
 20
-79.38523791870648
 30
0.0
 10
631.2035838021687
 20
-79.59234469971189
 30
0.0
  0
SPLINE
  5
ED
330
1F
100
AcDbEntity
  8
_U_5716_U_5C64_1
 62
     5
100
AcDbSpline
210
0.0
220
0.0
230
1.0
 70
    11
 71
     3
 72
    17
 73
    13
 74
     0
 42
0.0000000001
 43
0.0000000001
 12
1.0
 22
0.0
 32
0.0
 13
1.0
 23
0.0
 33
0.0
 40
0.0
 40
0.0
 40
0.0
 40
0.0
 40
1.0
 40
1.0
 40
1.0
 40
2.0
 40
2.0
 40
2.0
 40
3.0
 40
3.0
 40
3.0
 40
4.0
 40
4.0
 40
4.0
 40
4.0
 10
634.9005041320386
 20
-84.08864599962031
 30
0.0
 10
634.6076109132149
 20
-84.38153921824434
 30
0.0
 10
634.1327371791482
 20
-84.3815392180852
 30
0.0
 10
633.8398439605222
 20
-84.08864599926096
 30
0.0
 10
633.5469507419001
 20
-83.79575278043929
 30
0.0
 10
633.5469507420586
 20
-83.32087904637251
 30
0.0
 10
633.8398439608823
 20
-83.0279858277485
 30
0.0
 10
634.132737179702
 20
-82.73509260912319
 30
0.0
 10
634.6076109137688
 20
-82.7350926092836
 30
0.0
 10
634.9005041323946
 20
-83.02798582810527
 30
0.0
 10
635.1933973510206
 20
-83.32087904692695
 30
0.0
 10
635.1933973508621
 20
-83.795752780995
 30
0.0
 10
634.9005041320386
 20
-84.08864599962031
 30
0.0
  0
SPLINE
  5
EE
330
1F
100
AcDbEntity
  8
_U_5716_U_5C64_1
 62
     5
100
AcDbSpline
210
0.0
220
0.0
230
1.0
 70
    11
 71
     3
 72
    17
 73
    13
 74
     0
 42
0.0000000001
 43
0.0000000001
 12
1.0
 22
0.0
 32
0.0
 13
1.0
 23
0.0
 33
0.0
 40
0.0
 40
0.0
 40
0.0
 40
0.0
 40
1.0
 40
1.0
 40
1.0
 40
2.0
 40
2.0
 40
2.0
 40
3.0
 40
3.0
 40
3.0
 40
4.0
 40
4.0
 40
4.0
 40
4.0
 10
639.6351833653025
 20
-87.47490615841836
 30
0.0
 10
639.4280765840513
 20
-87.83362562584261
 30
0.0
 10
638.9693837800509
 20
-87.95653199208112
 30
0.0
 10
638.6106643126228
 20
-87.74942521083315
 30
0.0
 10
638.2519448451985
 20
-87.54231842958647
 30
0.0
 10
638.1290384789613
 20
-87.0836256255835
 30
0.0
 10
638.336145260208
 20
-86.72490615815796
 30
0.0
 10
638.5432520414553
 20
-86.36618669073115
 30
0.0
 10
639.0019448454557
 20
-86.2432803244952
 30
0.0
 10
639.3606643128838
 20
-86.4503871057406
 30
0.0
 10
639.7193837803119
 20
-86.65749388698728
 30
0.0
 10
639.8422901465498
 20
-87.11618669099154
 30
0.0
 10
639.6351833653025
 20
-87.47490615841836
 30
0.0
  0
SPLINE
  5
EF
330
1F
100
AcDbEntity
  8
_U_5716_U_5C64_1
 62
     5
100
AcDbSpline
210
0.0
220
0.0
230
1.0
 70
    11
 71
     3
 72
    17
 73
    13
 74
     0
 42
0.0000000001
 43
0.0000000001
 12
1.0
 22
0.0
 32
0.0
 13
1.0
 23
0.0
 33
0.0
 40
0.0
 40
0.0
 40
0.0
 40
0.0
 40
1.0
 40
1.0
 40
1.0
 40
2.0
 40
2.0
 40
2.0
 40
3.0
 40
3.0
 40
3.0
 40
4.0
 40
4.0
 40
4.0
 40
4.0
 10
645.0849609366595
 20
-89.52035714235572
 30
0.0
 10
644.9777545778659
 20
-89.92045671968927
 30
0.0
 10
644.5665018604916
 20
-90.15789358657892
 30
0.0
 10
644.1664022831574
 20
-90.05068722778725
 30
0.0
 10
643.7663027058233
 20
-89.94348086899751
 30
0.0
 10
643.5288658389323
 20
-89.53222815162326
 30
0.0
 10
643.636072197722
 20
-89.13212857428842
 30
0.0
 10
643.7432785565156
 20
-88.73202899695228
 30
0.0
 10
644.1545312738892
 20
-88.49459213006521
 30
0.0
 10
644.554630851224
 20
-88.60179848885431
 30
0.0
 10
644.9547304285583
 20
-88.70900484764341
 30
0.0
 10
645.1921672954492
 20
-89.12025756501959
 30
0.0
 10
645.0849609366595
 20
-89.52035714235572
 30
0.0
  0
SPLINE
  5
F0
330
1F
100
AcDbEntity
  8
_U_5716_U_5C64_1
 62
     5
100
AcDbSpline
210
0.0
220
0.0
230
1.0
 70
    11
 71
     3
 72
    17
 73
    13
 74
     0
 42
0.0000000001
 43
0.0000000001
 12
1.0
 22
0.0
 32
0.0
 13
1.0
 23
0.0
 33
0.0
 40
0.0
 40
0.0
 40
0.0
 40
0.0
 40
1.0
 40
1.0
 40
1.0
 40
2.0
 40
2.0
 40
2.0
 40
3.0
 40
3.0
 40
3.0
 40
4.0
 40
4.0
 40
4.0
 40
4.0
 10
650.878443510825
 20
-90.08560484715194
 30
0.0
 10
650.8784435106735
 20
-90.49981840939762
 30
0.0
 10
650.5426570729912
 20
-90.83560484684315
 30
0.0
 10
650.1284435107405
 20
-90.83560484669364
 30
0.0
 10
649.7142299484966
 20
-90.83560484654477
 30
0.0
 10
649.3784435110512
 20
-90.49981840885988
 30
0.0
 10
649.3784435111994
 20
-90.08560484661292
 30
0.0
 10
649.3784435113508
 20
-89.67139128436595
 30
0.0
 10
649.7142299490363
 20
-89.33560484692235
 30
0.0
 10
650.128443511284
 20
-89.33560484706994
 30
0.0
 10
650.5426570735277
 20
-89.33560484721754
 30
0.0
 10
650.8784435109732
 20
-89.67139128490626
 30
0.0
 10
650.878443510825
 20
-90.08560484715194
 30
0.0
  0
SPLINE
  5
F1
330
1F
100
AcDbEntity
  8
_U_5716_U_5C64_1
 62
     5
100
AcDbSpline
210
0.0
220
0.0
230
1.0
 70
    11
 71
     3
 72
    17
 73
    13
 74
     0
 42
0.0000000001
 43
0.0000000001
 12
1.0
 22
0.0
 32
0.0
 13
1.0
 23
0.0
 33
0.0
 40
0.0
 40
0.0
 40
0.0
 40
0.0
 40
1.0
 40
1.0
 40
1.0
 40
2.0
 40
2.0
 40
2.0
 40
3.0
 40
3.0
 40
3.0
 40
4.0
 40
4.0
 40
4.0
 40
4.0
 10
656.6208148245776
 20
-89.13212857584517
 30
0.0
 10
656.7280211830779
 20
-89.53222815325702
 30
0.0
 10
656.4905843158976
 20
-89.94348087046123
 30
0.0
 10
656.0904847384826
 20
-90.05068722896412
 30
0.0
 10
655.69038516107
 20
-90.15789358746575
 30
0.0
 10
655.2791324438658
 20
-89.92045672028348
 30
0.0
 10
655.1719260853616
 20
-89.52035714287037
 30
0.0
 10
655.0647197268613
 20
-89.12025756545724
 30
0.0
 10
655.3021565940443
 20
-88.70900484825431
 30
0.0
 10
655.7022561714599
 20
-88.60179848975012
 30
0.0
 10
656.1023557488725
 20
-88.49459213124722
 30
0.0
 10
656.5136084660767
 20
-88.73202899843332
 30
0.0
 10
656.6208148245776
 20
-89.13212857584517
 30
0.0
  0
SPLINE
  5
F2
330
1F
100
AcDbEntity
  8
_U_5716_U_5C64_1
 62
     5
100
AcDbSpline
210
0.0
220
0.0
230
1.0
 70
    11
 71
     3
 72
    17
 73
    13
 74
     0
 42
0.0000000001
 43
0.0000000001
 12
1.0
 22
0.0
 32
0.0
 13
1.0
 23
0.0
 33
0.0
 40
0.0
 40
0.0
 40
0.0
 40
0.0
 40
1.0
 40
1.0
 40
1.0
 40
2.0
 40
2.0
 40
2.0
 40
3.0
 40
3.0
 40
3.0
 40
4.0
 40
4.0
 40
4.0
 40
4.0
 10
661.9207417626243
 20
-86.72490616062593
 30
0.0
 10
662.1278485436098
 20
-87.08362562820163
 30
0.0
 10
662.0049421770447
 20
-87.54231843211605
 30
0.0
 10
661.6462227094684
 20
-87.74942521310541
 30
0.0
 10
661.287503241892
 20
-87.9565319940935
 30
0.0
 10
660.8288104379795
 20
-87.83362562752771
 30
0.0
 10
660.6217036569901
 20
-87.47490615995203
 30
0.0
 10
660.4145968760001
 20
-87.11618669237633
 30
0.0
 10
660.5375032425691
 20
-86.65749388846191
 30
0.0
 10
660.8962227101455
 20
-86.45038710747191
 30
0.0
 10
661.2549421777186
 20
-86.24328032648319
 30
0.0
 10
661.7136349816343
 20
-86.36618669305153
 30
0.0
 10
661.9207417626243
 20
-86.72490616062593
 30
0.0
  0
SPLINE
  5
F3
330
1F
100
AcDbEntity
  8
_U_5716_U_5C64_1
 62
     5
100
AcDbSpline
210
0.0
220
0.0
230
1.0
 70
    11
 71
     3
 72
    17
 73
    13
 74
     0
 42
0.0000000001
 43
0.0000000001
 12
1.0
 22
0.0
 32
0.0
 13
1.0
 23
0.0
 33
0.0
 40
0.0
 40
0.0
 40
0.0
 40
0.0
 40
1.0
 40
1.0
 40
1.0
 40
2.0
 40
2.0
 40
2.0
 40
3.0
 40
3.0
 40
3.0
 40
4.0
 40
4.0
 40
4.0
 40
4.0
 10
666.4170430626976
 20
-83.02798583095955
 30
0.0
 10
666.7099362813094
 20
-83.32087904979534
 30
0.0
 10
666.7099362811298
 20
-83.79575278386083
 30
0.0
 10
666.417043062292
 20
-84.08864600247459
 30
0.0
 10
666.124149843455
 20
-84.38153922108579
 30
0.0
 10
665.6492761093914
 20
-84.38153922090483
 30
0.0
 10
665.3563828907758
 20
-84.08864600206904
 30
0.0
 10
665.0634896721677
 20
-83.79575278323196
 30
0.0
 10
665.0634896723474
 20
-83.32087904916648
 30
0.0
 10
665.3563828911851
 20
-83.027985830554
 30
0.0
 10
665.6492761100191
 20
-82.73509261194152
 30
0.0
 10
666.1241498440864
 20
-82.73509261212376
 30
0.0
 10
666.4170430626976
 20
-83.02798583095955
 30
0.0
  0
SPLINE
  5
F4
330
1F
100
AcDbEntity
  8
_U_5716_U_5C64_1
 62
     5
100
AcDbSpline
210
0.0
220
0.0
230
1.0
 70
    11
 71
     3
 72
    17
 73
    13
 74
     0
 42
0.0000000001
 43
0.0000000001
 12
1.0
 22
0.0
 32
0.0
 13
1.0
 23
0.0
 33
0.0
 40
0.0
 40
0.0
 40
0.0
 40
0.0
 40
1.0
 40
1.0
 40
1.0
 40
2.0
 40
2.0
 40
2.0
 40
3.0
 40
3.0
 40
3.0
 40
4.0
 40
4.0
 40
4.0
 40
4.0
 10
669.8033032217074
 20
-78.29330659784836
 30
0.0
 10
670.1620226891253
 20
-78.50041337911173
 30
0.0
 10
670.2849290553413
 20
-78.95910618311984
 30
0.0
 10
670.0778222740767
 20
-79.31782565053767
 30
0.0
 10
669.8707154928152
 20
-79.67654511795422
 30
0.0
 10
669.4120226888077
 20
-79.79945148417092
 30
0.0
 10
669.0533032213899
 20
-79.59234470290883
 30
0.0
 10
668.6945837539721
 20
-79.38523792164418
 30
0.0
 10
668.571677387756
 20
-78.92654511763607
 30
0.0
 10
668.7787841690213
 20
-78.56782565021824
 30
0.0
 10
668.9858909502822
 20
-78.20910618280105
 30
0.0
 10
669.4445837542935
 20
-78.086199816585
 30
0.0
 10
669.8033032217074
 20
-78.29330659784836
 30
0.0
  0
SPLINE
  5
F5
330
1F
100
AcDbEntity
  8
_U_5716_U_5C64_1
 62
     5
100
AcDbSpline
210
0.0
220
0.0
230
1.0
 70
    11
 71
     3
 72
    17
 73
    13
 74
     0
 42
0.0000000001
 43
0.0000000001
 12
1.0
 22
0.0
 32
0.0
 13
1.0
 23
0.0
 33
0.0
 40
0.0
 40
0.0
 40
0.0
 40
0.0
 40
1.0
 40
1.0
 40
1.0
 40
2.0
 40
2.0
 40
2.0
 40
3.0
 40
3.0
 40
3.0
 40
4.0
 40
4.0
 40
4.0
 40
4.0
 10
671.8487542058899
 20
-72.84352902658311
 30
0.0
 10
672.2488537832209
 20
-72.95073538539211
 30
0.0
 10
672.4862906500906
 20
-73.36198810277664
 30
0.0
 10
672.379084291283
 20
-73.76208768010763
 30
0.0
 10
672.271877932472
 20
-74.16218725743862
 30
0.0
 10
671.8606252150875
 20
-74.39962412430901
 30
0.0
 10
671.4605256377597
 20
-74.29241776550066
 30
0.0
 10
671.0604260604288
 20
-74.18521140669102
 30
0.0
 10
670.8229891935596
 20
-73.77395868930586
 30
0.0
 10
670.9301955523666
 20
-73.37385911197487
 30
0.0
 10
671.0374019111705
 20
-72.97375953464388
 30
0.0
 10
671.4486546285589
 20
-72.73632266777476
 30
0.0
 10
671.8487542058899
 20
-72.84352902658311
 30
0.0
  0
SPLINE
  5
F6
330
1F
100
AcDbEntity
  8
_U_5716_U_5C64_1
 62
     5
100
AcDbSpline
210
0.0
220
0.0
230
1.0
 70
    11
 71
     3
 72
    17
 73
    13
 74
     0
 42
0.0000000001
 43
0.0000000001
 12
1.0
 22
0.0
 32
0.0
 13
1.0
 23
0.0
 33
0.0
 40
0.0
 40
0.0
 40
0.0
 40
0.0
 40
1.0
 40
1.0
 40
1.0
 40
2.0
 40
2.0
 40
2.0
 40
3.0
 40
3.0
 40
3.0
 40
4.0
 40
4.0
 40
4.0
 40
4.0
 10
672.414001910948
 20
-67.05004645244134
 30
0.0
 10
672.8282154731917
 20
-67.05004645261074
 30
0.0
 10
673.1640019106231
 20
-67.38583289030976
 30
0.0
 10
673.1640019104537
 20
-67.80004645255799
 30
0.0
 10
673.1640019102881
 20
-68.21426001480367
 30
0.0
 10
672.8282154725847
 20
-68.55004645223444
 30
0.0
 10
672.4140019103409
 20
-68.55004645206697
 30
0.0
 10
671.9997883480933
 20
-68.55004645189692
 30
0.0
 10
671.6640019106658
 20
-68.21426001419663
 30
0.0
 10
671.6640019108313
 20
-67.80004645194967
 30
0.0
 10
671.6640019109975
 20
-67.38583288970335
 30
0.0
 10
671.9997883487003
 20
-67.05004645227322
 30
0.0
 10
672.414001910948
 20
-67.05004645244134
 30
0.0
  0
SPLINE
  5
F7
330
1F
100
AcDbEntity
  8
_U_5716_U_5C64_1
 62
     5
100
AcDbSpline
210
0.0
220
0.0
230
1.0
 70
    11
 71
     3
 72
    17
 73
    13
 74
     0
 42
0.0000000001
 43
0.0000000001
 12
1.0
 22
0.0
 32
0.0
 13
1.0
 23
0.0
 33
0.0
 40
0.0
 40
0.0
 40
0.0
 40
0.0
 40
1.0
 40
1.0
 40
1.0
 40
2.0
 40
2.0
 40
2.0
 40
3.0
 40
3.0
 40
3.0
 40
4.0
 40
4.0
 40
4.0
 40
4.0
 10
671.4605256398978
 20
-61.30767513864509
 30
0.0
 10
671.8606252173136
 20
-61.20046878016272
 30
0.0
 10
672.2718779345075
 20
-61.43790564736423
 30
0.0
 10
672.3790842929938
 20
-61.83800522478249
 30
0.0
 10
672.4862906514767
 20
-62.23810480219947
 30
0.0
 10
672.2488537842759
 20
-62.64935751939341
 30
0.0
 10
671.8487542068601
 20
-62.75656387787706
 30
0.0
 10
671.4486546294413
 20
-62.86377023635943
 30
0.0
 10
671.0374019122467
 20
-62.62633336915857
 30
0.0
 10
670.9301955537604
 20
-62.2262337917403
 30
0.0
 10
670.8229891952774
 20
-61.82613421432396
 30
0.0
 10
671.0604260624822
 20
-61.41488149713003
 30
0.0
 10
671.4605256398978
 20
-61.30767513864509
 30
0.0
  0
SPLINE
  5
F8
330
1F
100
AcDbEntity
  8
_U_5716_U_5C64_1
 62
     5
100
AcDbSpline
210
0.0
220
0.0
230
1.0
 70
    11
 71
     3
 72
    17
 73
    13
 74
     0
 42
0.0000000001
 43
0.0000000001
 12
1.0
 22
0.0
 32
0.0
 13
1.0
 23
0.0
 33
0.0
 40
0.0
 40
0.0
 40
0.0
 40
0.0
 40
1.0
 40
1.0
 40
1.0
 40
2.0
 40
2.0
 40
2.0
 40
3.0
 40
3.0
 40
3.0
 40
4.0
 40
4.0
 40
4.0
 40
4.0
 10
669.053303224918
 20
-56.00774820049126
 30
0.0
 10
669.4120226925014
 20
-55.8006414195205
 30
0.0
 10
669.87071549641
 20
-55.92354778610682
 30
0.0
 10
670.0778222773821
 20
-56.28226725369278
 30
0.0
 10
670.2849290583541
 20
-56.64098672127745
 30
0.0
 10
670.1620226917671
 20
-57.09967952518674
 30
0.0
 10
669.8033032241838
 20
-57.30678630615878
 30
0.0
 10
669.4445837565971
 20
-57.51389308712953
 30
0.0
 10
668.9858909526916
 20
-57.39098672054321
 30
0.0
 10
668.7787841717164
 20
-57.03226725295854
 30
0.0
 10
668.5716773907444
 20
-56.67354778537451
 30
0.0
 10
668.6945837573346
 20
-56.21485498146458
 30
0.0
 10
669.053303224918
 20
-56.00774820049126
 30
0.0
  0
SPLINE
  5
F9
330
1F
100
AcDbEntity
  8
_U_5716_U_5C64_1
 62
     5
100
AcDbSpline
210
0.0
220
0.0
230
1.0
 70
    11
 71
     3
 72
    17
 73
    13
 74
     0
 42
0.0000000001
 43
0.0000000001
 12
1.0
 22
0.0
 32
0.0
 13
1.0
 23
0.0
 33
0.0
 40
0.0
 40
0.0
 40
0.0
 40
0.0
 40
1.0
 40
1.0
 40
1.0
 40
2.0
 40
2.0
 40
2.0
 40
3.0
 40
3.0
 40
3.0
 40
4.0
 40
4.0
 40
4.0
 40
4.0
 10
665.3563828954537
 20
-51.51144690025043
 30
0.0
 10
665.6492761143018
 20
-51.21855368165335
 30
0.0
 10
666.1241498483653
 20
-51.21855368185549
 30
0.0
 10
666.4170430669668
 20
-51.5114469007054
 30
0.0
 10
666.7099362855639
 20
-51.80434011955466
 30
0.0
 10
666.709936285363
 20
-52.2792138536208
 30
0.0
 10
666.4170430665151
 20
-52.57210707221851
 30
0.0
 10
666.1241498476633
 20
-52.86500029081687
 30
0.0
 10
665.6492761135997
 20
-52.86500029061474
 30
0.0
 10
665.3563828949988
 20
-52.57210707176547
 30
0.0
 10
665.063489676401
 20
-52.27921385291685
 30
0.0
 10
665.0634896766019
 20
-51.80434011885008
 30
0.0
 10
665.3563828954537
 20
-51.51144690025043
 30
0.0
  0
SPLINE
  5
FA
330
1F
100
AcDbEntity
  8
_U_5716_U_5C64_1
 62
     5
100
AcDbSpline
210
0.0
220
0.0
230
1.0
 70
    11
 71
     3
 72
    17
 73
    13
 74
     0
 42
0.0000000001
 43
0.0000000001
 12
1.0
 22
0.0
 32
0.0
 13
1.0
 23
0.0
 33
0.0
 40
0.0
 40
0.0
 40
0.0
 40
0.0
 40
1.0
 40
1.0
 40
1.0
 40
2.0
 40
2.0
 40
2.0
 40
3.0
 40
3.0
 40
3.0
 40
4.0
 40
4.0
 40
4.0
 40
4.0
 10
660.6217036624934
 20
-48.12518674102758
 30
0.0
 10
660.8288104437721
 20
-47.76646727362194
 30
0.0
 10
661.2875032477866
 20
-47.64356090742513
 30
0.0
 10
661.6462227151942
 20
-47.85066768870519
 30
0.0
 10
662.0049421826011
 20
-48.05777446998524
 30
0.0
 10
662.1278485487992
 20
-48.51646727399881
 30
0.0
 10
661.9207417675204
 20
-48.87518674140477
 30
0.0
 10
661.7136349862378
 20
-49.23390620881233
 30
0.0
 10
661.2549421822272
 20
-49.3568125750085
 30
0.0
 10
660.8962227148164
 20
-49.14970579372972
 30
0.0
 10
660.5375032474094
 20
-48.94259901245096
 30
0.0
 10
660.4145968812146
 20
-48.48390620843514
 30
0.0
 10
660.6217036624934
 20
-48.12518674102758
 30
0.0
  0
SPLINE
  5
FB
330
1F
100
AcDbEntity
  8
_U_5716_U_5C64_1
 62
     5
100
AcDbSpline
210
0.0
220
0.0
230
1.0
 70
    11
 71
     3
 72
    17
 73
    13
 74
     0
 42
0.0000000001
 43
0.0000000001
 12
1.0
 22
0.0
 32
0.0
 13
1.0
 23
0.0
 33
0.0
 40
0.0
 40
0.0
 40
0.0
 40
0.0
 40
1.0
 40
1.0
 40
1.0
 40
2.0
 40
2.0
 40
2.0
 40
3.0
 40
3.0
 40
3.0
 40
4.0
 40
4.0
 40
4.0
 40
4.0
 10
655.1719260913198
 20
-46.07973575660125
 30
0.0
 10
655.2791324501449
 20
-45.67963617927668
 30
0.0
 10
655.6903851675403
 20
-45.44219931242553
 30
0.0
 10
656.0904847448675
 20
-45.54940567125217
 30
0.0
 10
656.4905843221952
 20
-45.65661203007817
 30
0.0
 10
656.728021189047
 20
-46.0678647474736
 30
0.0
 10
656.620814830222
 20
-46.46796432479817
 30
0.0
 10
656.51360847139
 20
-46.86806390212404
 30
0.0
 10
656.1023557539983
 20
-47.10550076897582
 30
0.0
 10
655.7022561766705
 20
-46.99829441015014
 30
0.0
 10
655.3021565993433
 20
-46.89108805132511
 30
0.0
 10
655.0647197324948
 20
-46.47983533392679
 30
0.0
 10
655.1719260913198
 20
-46.07973575660125
 30
0.0
  0
SPLINE
  5
FC
330
1F
100
AcDbEntity
  8
_U_5716_U_5C64_1
 62
     7
100
AcDbSpline
210
0.0
220
0.0
230
1.0
 70
    11
 71
     3
 72
    17
 73
    13
 74
     0
 42
0.0000000001
 43
0.0000000001
 12
1.0
 22
0.0
 32
0.0
 13
1.0
 23
0.0
 33
0.0
 40
0.0
 40
0.0
 40
0.0
 40
0.0
 40
1.0
 40
1.0
 40
1.0
 40
2.0
 40
2.0
 40
2.0
 40
3.0
 40
3.0
 40
3.0
 40
4.0
 40
4.0
 40
4.0
 40
4.0
 10
744.9737369908775
 20
-40.55004449267678
 30
0.0
 10
729.5097799499295
 20
-40.55004449267678
 30
0.0
 10
716.9737449663575
 20
-53.08607947625099
 30
0.0
 10
716.9737449663575
 20
-68.55003651719838
 30
0.0
 10
716.9737449663575
 20
-84.01401508999254
 30
0.0
 10
729.5097799499295
 20
-96.55005007356642
 30
0.0
 10
744.9737369908775
 20
-96.55005007356642
 30
0.0
 10
760.4377155636704
 20
-96.55005007356642
 30
0.0
 10
772.9737505472456
 20
-84.01401508999254
 30
0.0
 10
772.9737505472456
 20
-68.55003651719838
 30
0.0
 10
772.9737505472456
 20
-53.08607947625099
 30
0.0
 10
760.4377155636704
 20
-40.55004449267678
 30
0.0
 10
744.9737369908775
 20
-40.55004449267678
 30
0.0
  0
SPLINE
  5
FD
330
1F
100
AcDbEntity
  8
_U_5716_U_5C64_1
 62
     5
100
AcDbSpline
210
0.0
220
0.0
230
1.0
 70
    11
 71
     3
 72
    17
 73
    13
 74
     0
 42
0.0000000001
 43
0.0000000001
 12
1.0
 22
0.0
 32
0.0
 13
1.0
 23
0.0
 33
0.0
 40
0.0
 40
0.0
 40
0.0
 40
0.0
 40
1.0
 40
1.0
 40
1.0
 40
2.0
 40
2.0
 40
2.0
 40
3.0
 40
3.0
 40
3.0
 40
4.0
 40
4.0
 40
4.0
 40
4.0
 10
744.9737369908775
 20
-71.05005618345704
 30
0.0
 10
743.5930288477746
 20
-71.05005618345704
 30
0.0
 10
742.4737388564649
 20
-69.93076619214615
 30
0.0
 10
742.4737388564649
 20
-68.55003651719838
 30
0.0
 10
742.4737388564649
 20
-67.16932837409738
 30
0.0
 10
743.5930288477746
 20
-66.05003838278648
 30
0.0
 10
744.9737369908775
 20
-66.05003838278648
 30
0.0
 10
746.3544666658246
 20
-66.05003838278648
 30
0.0
 10
747.47373512529
 20
-67.16932837409738
 30
0.0
 10
747.47373512529
 20
-68.55003651719838
 30
0.0
 10
747.47373512529
 20
-69.93076619214615
 30
0.0
 10
746.3544666658246
 20
-71.05005618345704
 30
0.0
 10
744.9737369908775
 20
-71.05005618345704
 30
0.0
  0
SPLINE
  5
FE
330
1F
100
AcDbEntity
  8
_U_5716_U_5C64_1
 62
     5
100
AcDbSpline
210
0.0
220
0.0
230
1.0
 70
    11
 71
     3
 72
    17
 73
    13
 74
     0
 42
0.0000000001
 43
0.0000000001
 12
1.0
 22
0.0
 32
0.0
 13
1.0
 23
0.0
 33
0.0
 40
0.0
 40
0.0
 40
0.0
 40
0.0
 40
1.0
 40
1.0
 40
1.0
 40
2.0
 40
2.0
 40
2.0
 40
3.0
 40
3.0
 40
3.0
 40
4.0
 40
4.0
 40
4.0
 40
4.0
 10
744.2237470841181
 20
-46.26448896939922
 30
0.0
 10
744.2237470842305
 20
-45.8502754071529
 30
0.0
 10
744.5595335218884
 20
-45.51448896967721
 30
0.0
 10
744.9737470841321
 20
-45.51448896978886
 30
0.0
 10
745.3879606463797
 20
-45.51448896990052
 30
0.0
 10
745.7237470838535
 20
-45.85027540755717
 30
0.0
 10
745.7237470837438
 20
-46.26448896980349
 30
0.0
 10
745.7237470836309
 20
-46.67870253204981
 30
0.0
 10
745.3879606459742
 20
-47.0144889695255
 30
0.0
 10
744.9737470837298
 20
-47.01448896941385
 30
0.0
 10
744.5595335214829
 20
-47.01448896930219
 30
0.0
 10
744.2237470840053
 20
-46.67870253164554
 30
0.0
 10
744.2237470841181
 20
-46.26448896939922
 30
0.0
  0
SPLINE
  5
FF
330
1F
100
AcDbEntity
  8
_U_5716_U_5C64_1
 62
     5
100
AcDbSpline
210
0.0
220
0.0
230
1.0
 70
    11
 71
     3
 72
    17
 73
    13
 74
     0
 42
0.0000000001
 43
0.0000000001
 12
1.0
 22
0.0
 32
0.0
 13
1.0
 23
0.0
 33
0.0
 40
0.0
 40
0.0
 40
0.0
 40
0.0
 40
1.0
 40
1.0
 40
1.0
 40
2.0
 40
2.0
 40
2.0
 40
3.0
 40
3.0
 40
3.0
 40
4.0
 40
4.0
 40
4.0
 40
4.0
 10
738.4813757704502
 20
-47.21796524122128
 30
0.0
 10
738.3741694119146
 20
-46.81786566381906
 30
0.0
 10
738.6116062790591
 20
-46.40661294659303
 30
0.0
 10
739.0117058564645
 20
-46.29940658805484
 30
0.0
 10
739.4118054338654
 20
-46.19220022951632
 30
0.0
 10
739.8230581510913
 20
-46.4296370966636
 30
0.0
 10
739.9302645096309
 20
-46.82973667406647
 30
0.0
 10
740.0374708681666
 20
-47.22983625146933
 30
0.0
 10
739.8000340010221
 20
-47.64108896869535
 30
0.0
 10
739.3999344236173
 20
-47.74829532723355
 30
0.0
 10
738.9998348462158
 20
-47.85550168577175
 30
0.0
 10
738.5885821289897
 20
-47.61806481862414
 30
0.0
 10
738.4813757704502
 20
-47.21796524122128
 30
0.0
  0
SPLINE
  5
100
330
1F
100
AcDbEntity
  8
_U_5716_U_5C64_1
 62
     5
100
AcDbSpline
210
0.0
220
0.0
230
1.0
 70
    11
 71
     3
 72
    17
 73
    13
 74
     0
 42
0.0000000001
 43
0.0000000001
 12
1.0
 22
0.0
 32
0.0
 13
1.0
 23
0.0
 33
0.0
 40
0.0
 40
0.0
 40
0.0
 40
0.0
 40
1.0
 40
1.0
 40
1.0
 40
2.0
 40
2.0
 40
2.0
 40
3.0
 40
3.0
 40
3.0
 40
4.0
 40
4.0
 40
4.0
 40
4.0
 10
733.1814488326224
 20
-49.62518765691665
 30
0.0
 10
732.974342051601
 20
-49.26646818936021
 30
0.0
 10
733.0972484181276
 20
-48.80777538543424
 30
0.0
 10
733.4559678856828
 20
-48.60066860441215
 30
0.0
 10
733.8146873532379
 20
-48.39356182339134
 30
0.0
 10
734.2733801571684
 20
-48.51646818991734
 30
0.0
 10
734.480486938186
 20
-48.87518765747346
 30
0.0
 10
734.6875937192074
 20
-49.23390712503021
 30
0.0
 10
734.5646873526807
 20
-49.69259992895619
 30
0.0
 10
734.2059678851256
 20
-49.89970670997828
 30
0.0
 10
733.8472484175704
 20
-50.10681349099909
 30
0.0
 10
733.3885556136438
 20
-49.98390712447308
 30
0.0
 10
733.1814488326224
 20
-49.62518765691665
 30
0.0
  0
SPLINE
  5
101
330
1F
100
AcDbEntity
  8
_U_5716_U_5C64_1
 62
     5
100
AcDbSpline
210
0.0
220
0.0
230
1.0
 70
    11
 71
     3
 72
    17
 73
    13
 74
     0
 42
0.0000000001
 43
0.0000000001
 12
1.0
 22
0.0
 32
0.0
 13
1.0
 23
0.0
 33
0.0
 40
0.0
 40
0.0
 40
0.0
 40
0.0
 40
1.0
 40
1.0
 40
1.0
 40
2.0
 40
2.0
 40
2.0
 40
3.0
 40
3.0
 40
3.0
 40
4.0
 40
4.0
 40
4.0
 40
4.0
 10
728.6851475328801
 20
-53.32210798698731
 30
0.0
 10
728.3922543142401
 20
-53.02921476817719
 30
0.0
 10
728.3922543143781
 20
-52.55434103411106
 30
0.0
 10
728.6851475331907
 20
-52.26144781547227
 30
0.0
 10
728.9780407519996
 20
-51.96855459683412
 30
0.0
 10
729.452914486067
 20
-51.96855459697273
 30
0.0
 10
729.7458077047032
 20
-52.26144781578157
 30
0.0
 10
730.0387009233433
 20
-52.55434103459169
 30
0.0
 10
730.0387009232021
 20
-53.02921476865846
 30
0.0
 10
729.7458077043926
 20
-53.3221079872966
 30
0.0
 10
729.4529144855838
 20
-53.61500120593539
 30
0.0
 10
728.9780407515163
 20
-53.61500120579679
 30
0.0
 10
728.6851475328801
 20
-53.32210798698731
 30
0.0
  0
SPLINE
  5
102
330
1F
100
AcDbEntity
  8
_U_5716_U_5C64_1
 62
     5
100
AcDbSpline
210
0.0
220
0.0
230
1.0
 70
    11
 71
     3
 72
    17
 73
    13
 74
     0
 42
0.0000000001
 43
0.0000000001
 12
1.0
 22
0.0
 32
0.0
 13
1.0
 23
0.0
 33
0.0
 40
0.0
 40
0.0
 40
0.0
 40
0.0
 40
1.0
 40
1.0
 40
1.0
 40
2.0
 40
2.0
 40
2.0
 40
3.0
 40
3.0
 40
3.0
 40
4.0
 40
4.0
 40
4.0
 40
4.0
 10
725.2988873742939
 20
-58.05678722040266
 30
0.0
 10
724.9401679068587
 20
-57.84968043917138
 30
0.0
 10
724.8172615406003
 20
-57.39098763517354
 30
0.0
 10
725.0243683218335
 20
-57.03226816773774
 30
0.0
 10
725.2314751030628
 20
-56.67354870030322
 30
0.0
 10
725.6901679070594
 20
-56.55064233404417
 30
0.0
 10
726.0488873744953
 20
-56.75774911527546
 30
0.0
 10
726.4076068419304
 20
-56.96485589650546
 30
0.0
 10
726.5305132081888
 20
-57.4235487005033
 30
0.0
 10
726.3234064269589
 20
-57.78226816794038
 30
0.0
 10
726.1162996457294
 20
-58.1409876353749
 30
0.0
 10
725.657606841729
 20
-58.26389400163395
 30
0.0
 10
725.2988873742939
 20
-58.05678722040266
 30
0.0
  0
SPLINE
  5
103
330
1F
100
AcDbEntity
  8
_U_5716_U_5C64_1
 62
     5
100
AcDbSpline
210
0.0
220
0.0
230
1.0
 70
    11
 71
     3
 72
    17
 73
    13
 74
     0
 42
0.0000000001
 43
0.0000000001
 12
1.0
 22
0.0
 32
0.0
 13
1.0
 23
0.0
 33
0.0
 40
0.0
 40
0.0
 40
0.0
 40
0.0
 40
1.0
 40
1.0
 40
1.0
 40
2.0
 40
2.0
 40
2.0
 40
3.0
 40
3.0
 40
3.0
 40
4.0
 40
4.0
 40
4.0
 40
4.0
 10
723.2534363906017
 20
-63.50656479185144
 30
0.0
 10
722.8533368132643
 20
-63.39935843307774
 30
0.0
 10
722.6158999463554
 20
-62.98810571571439
 30
0.0
 10
722.7231063051278
 20
-62.58800613837313
 30
0.0
 10
722.8303126639001
 20
-62.18790656103444
 30
0.0
 10
723.2415653812635
 20
-61.95046969412682
 30
0.0
 10
723.6416649586016
 20
-62.05767605289924
 30
0.0
 10
724.0417645359429
 20
-62.16488241167038
 30
0.0
 10
724.2792014028511
 20
-62.57613512903501
 30
0.0
 10
724.1719950440787
 20
-62.97623470637627
 30
0.0
 10
724.0647886853069
 20
-63.37633428371624
 30
0.0
 10
723.6535359679397
 20
-63.61377115062385
 30
0.0
 10
723.2534363906017
 20
-63.50656479185144
 30
0.0
  0
SPLINE
  5
104
330
1F
100
AcDbEntity
  8
_U_5716_U_5C64_1
 62
     5
100
AcDbSpline
210
0.0
220
0.0
230
1.0
 70
    11
 71
     3
 72
    17
 73
    13
 74
     0
 42
0.0000000001
 43
0.0000000001
 12
1.0
 22
0.0
 32
0.0
 13
1.0
 23
0.0
 33
0.0
 40
0.0
 40
0.0
 40
0.0
 40
0.0
 40
1.0
 40
1.0
 40
1.0
 40
2.0
 40
2.0
 40
2.0
 40
3.0
 40
3.0
 40
3.0
 40
4.0
 40
4.0
 40
4.0
 40
4.0
 10
722.6881886860627
 20
-69.30004736604326
 30
0.0
 10
722.2739751238183
 20
-69.30004736591236
 30
0.0
 10
721.9381886863587
 20
-68.96426092824159
 30
0.0
 10
721.9381886864896
 20
-68.55004736599463
 30
0.0
 10
721.9381886866199
 20
-68.13583380374895
 30
0.0
 10
722.2739751242913
 20
-67.80004736628737
 30
0.0
 10
722.688188686535
 20
-67.80004736641828
 30
0.0
 10
723.1024022487826
 20
-67.80004736654855
 30
0.0
 10
723.4381886862423
 20
-68.13583380421996
 30
0.0
 10
723.438188686112
 20
-68.55004736646691
 30
0.0
 10
723.4381886859811
 20
-68.96426092871259
 30
0.0
 10
723.1024022483103
 20
-69.30004736617417
 30
0.0
 10
722.6881886860627
 20
-69.30004736604326
 30
0.0
  0
SPLINE
  5
105
330
1F
100
AcDbEntity
  8
_U_5716_U_5C64_1
 62
     5
100
AcDbSpline
210
0.0
220
0.0
230
1.0
 70
    11
 71
     3
 72
    17
 73
    13
 74
     0
 42
0.0000000001
 43
0.0000000001
 12
1.0
 22
0.0
 32
0.0
 13
1.0
 23
0.0
 33
0.0
 40
0.0
 40
0.0
 40
0.0
 40
0.0
 40
1.0
 40
1.0
 40
1.0
 40
2.0
 40
2.0
 40
2.0
 40
3.0
 40
3.0
 40
3.0
 40
4.0
 40
4.0
 40
4.0
 40
4.0
 10
723.6416649576275
 20
-75.04241867975352
 30
0.0
 10
723.2415653802227
 20
-75.14962503827184
 30
0.0
 10
722.8303126630076
 20
-74.91218817110754
 30
0.0
 10
722.7231063044861
 20
-74.51208859369954
 30
0.0
 10
722.6158999459677
 20
-74.11198901629218
 30
0.0
 10
722.8533368131333
 20
-73.7007362990758
 30
0.0
 10
723.2534363905388
 20
-73.59352994055749
 30
0.0
 10
723.6535359679467
 20
-73.48632358203662
 30
0.0
 10
724.0647886851625
 20
-73.72376044920219
 30
0.0
 10
724.171995043684
 20
-74.12386002661019
 30
0.0
 10
724.2792014022017
 20
-74.5239596040169
 30
0.0
 10
724.0417645350361
 20
-74.93521232123395
 30
0.0
 10
723.6416649576275
 20
-75.04241867975352
 30
0.0
  0
SPLINE
  5
106
330
1F
100
AcDbEntity
  8
_U_5716_U_5C64_1
 62
     5
100
AcDbSpline
210
0.0
220
0.0
230
1.0
 70
    11
 71
     3
 72
    17
 73
    13
 74
     0
 42
0.0000000001
 43
0.0000000001
 12
1.0
 22
0.0
 32
0.0
 13
1.0
 23
0.0
 33
0.0
 40
0.0
 40
0.0
 40
0.0
 40
0.0
 40
1.0
 40
1.0
 40
1.0
 40
2.0
 40
2.0
 40
2.0
 40
3.0
 40
3.0
 40
3.0
 40
4.0
 40
4.0
 40
4.0
 40
4.0
 10
726.0488873730874
 20
-80.34234561769175
 30
0.0
 10
725.6901679055219
 20
-80.54945239869458
 30
0.0
 10
725.2314751015986
 20
-80.42654603214933
 30
0.0
 10
725.024368320595
 20
-80.06782656458263
 30
0.0
 10
724.8172615395915
 20
-79.70910709701721
 30
0.0
 10
724.9401679061356
 20
-79.25041429309573
 30
0.0
 10
725.298887373701
 20
-79.04330751209226
 30
0.0
 10
725.657606841267
 20
-78.83620073108685
 30
0.0
 10
726.1162996451866
 20
-78.95910709763338
 30
0.0
 10
726.3234064261939
 20
-79.31782656519944
 30
0.0
 10
726.5305132072006
 20
-79.67654603276422
 30
0.0
 10
726.4076068406534
 20
-80.13523883668634
 30
0.0
 10
726.0488873730874
 20
-80.34234561769175
 30
0.0
  0
SPLINE
  5
107
330
1F
100
AcDbEntity
  8
_U_5716_U_5C64_1
 62
     5
100
AcDbSpline
210
0.0
220
0.0
230
1.0
 70
    11
 71
     3
 72
    17
 73
    13
 74
     0
 42
0.0000000001
 43
0.0000000001
 12
1.0
 22
0.0
 32
0.0
 13
1.0
 23
0.0
 33
0.0
 40
0.0
 40
0.0
 40
0.0
 40
0.0
 40
1.0
 40
1.0
 40
1.0
 40
2.0
 40
2.0
 40
2.0
 40
3.0
 40
3.0
 40
3.0
 40
4.0
 40
4.0
 40
4.0
 40
4.0
 10
729.7458077029539
 20
-84.83864691760017
 30
0.0
 10
729.4529144841304
 20
-85.13154013622291
 30
0.0
 10
728.9780407500668
 20
-85.13154013606378
 30
0.0
 10
728.6851475314409
 20
-84.83864691724082
 30
0.0
 10
728.3922543128149
 20
-84.54575369841787
 30
0.0
 10
728.392254312974
 20
-84.07087996435109
 30
0.0
 10
728.6851475317969
 20
-83.77798674572706
 30
0.0
 10
728.9780407506206
 20
-83.48509352710175
 30
0.0
 10
729.452914484688
 20
-83.48509352726282
 30
0.0
 10
729.7458077033133
 20
-83.77798674608513
 30
0.0
 10
730.0387009219393
 20
-84.07087996490681
 30
0.0
 10
730.0387009217769
 20
-84.54575369897486
 30
0.0
 10
729.7458077029539
 20
-84.83864691760017
 30
0.0
  0
SPLINE
  5
108
330
1F
100
AcDbEntity
  8
_U_5716_U_5C64_1
 62
     5
100
AcDbSpline
210
0.0
220
0.0
230
1.0
 70
    11
 71
     3
 72
    17
 73
    13
 74
     0
 42
0.0000000001
 43
0.0000000001
 12
1.0
 22
0.0
 32
0.0
 13
1.0
 23
0.0
 33
0.0
 40
0.0
 40
0.0
 40
0.0
 40
0.0
 40
1.0
 40
1.0
 40
1.0
 40
2.0
 40
2.0
 40
2.0
 40
3.0
 40
3.0
 40
3.0
 40
4.0
 40
4.0
 40
4.0
 40
4.0
 10
734.4804869362172
 20
-88.22490707639759
 30
0.0
 10
734.2733801549699
 20
-88.58362654382246
 30
0.0
 10
733.8146873509695
 20
-88.7065329100597
 30
0.0
 10
733.4559678835413
 20
-88.49942612881237
 30
0.0
 10
733.0972484161172
 20
-88.29231934756504
 30
0.0
 10
732.9743420498761
 20
-87.83362654356208
 30
0.0
 10
733.1814488311234
 20
-87.47490707613655
 30
0.0
 10
733.3885556123707
 20
-87.11618760871102
 30
0.0
 10
733.8472484163743
 20
-86.99328124247506
 30
0.0
 10
734.2059678838024
 20
-87.20038802372046
 30
0.0
 10
734.5646873512273
 20
-87.40749480496586
 30
0.0
 10
734.6875937174646
 20
-87.8661876089714
 30
0.0
 10
734.4804869362172
 20
-88.22490707639759
 30
0.0
  0
SPLINE
  5
109
330
1F
100
AcDbEntity
  8
_U_5716_U_5C64_1
 62
     5
100
AcDbSpline
210
0.0
220
0.0
230
1.0
 70
    11
 71
     3
 72
    17
 73
    13
 74
     0
 42
0.0000000001
 43
0.0000000001
 12
1.0
 22
0.0
 32
0.0
 13
1.0
 23
0.0
 33
0.0
 40
0.0
 40
0.0
 40
0.0
 40
0.0
 40
1.0
 40
1.0
 40
1.0
 40
2.0
 40
2.0
 40
2.0
 40
3.0
 40
3.0
 40
3.0
 40
4.0
 40
4.0
 40
4.0
 40
4.0
 10
739.9302645075743
 20
-90.27035806033429
 30
0.0
 10
739.8230581487845
 20
-90.67045763766913
 30
0.0
 10
739.4118054314102
 20
-90.9078945045575
 30
0.0
 10
739.0117058540728
 20
-90.80068814576711
 30
0.0
 10
738.611606276738
 20
-90.69348178697673
 30
0.0
 10
738.374169409847
 20
-90.28222906960247
 30
0.0
 10
738.4813757686406
 20
-89.88212949226698
 30
0.0
 10
738.5885821274304
 20
-89.48202991493214
 30
0.0
 10
738.9998348448047
 20
-89.24459304804506
 30
0.0
 10
739.3999344221427
 20
-89.35179940683288
 30
0.0
 10
739.8000339994769
 20
-89.45900576562263
 30
0.0
 10
740.037470866364
 20
-89.87025848299945
 30
0.0
 10
739.9302645075743
 20
-90.27035806033429
 30
0.0
  0
SPLINE
  5
10A
330
1F
100
AcDbEntity
  8
_U_5716_U_5C64_1
 62
     5
100
AcDbSpline
210
0.0
220
0.0
230
1.0
 70
    11
 71
     3
 72
    17
 73
    13
 74
     0
 42
0.0000000001
 43
0.0000000001
 12
1.0
 22
0.0
 32
0.0
 13
1.0
 23
0.0
 33
0.0
 40
0.0
 40
0.0
 40
0.0
 40
0.0
 40
1.0
 40
1.0
 40
1.0
 40
2.0
 40
2.0
 40
2.0
 40
3.0
 40
3.0
 40
3.0
 40
4.0
 40
4.0
 40
4.0
 40
4.0
 10
745.7237470817436
 20
-90.8356057651318
 30
0.0
 10
745.7237470815921
 20
-91.24981932737748
 30
0.0
 10
745.3879606439066
 20
-91.58560576482238
 30
0.0
 10
744.973747081659
 20
-91.5856057646735
 30
0.0
 10
744.5595335194114
 20
-91.58560576452334
 30
0.0
 10
744.2237470819659
 20
-91.24981932683846
 30
0.0
 10
744.2237470821179
 20
-90.83560576459149
 30
0.0
 10
744.2237470822656
 20
-90.42139220234453
 30
0.0
 10
744.5595335199517
 20
-90.08560576490093
 30
0.0
 10
744.9737470821987
 20
-90.08560576504851
 30
0.0
 10
745.3879606444463
 20
-90.08560576519739
 30
0.0
 10
745.7237470818918
 20
-90.42139220288485
 30
0.0
 10
745.7237470817436
 20
-90.8356057651318
 30
0.0
  0
SPLINE
  5
10B
330
1F
100
AcDbEntity
  8
_U_5716_U_5C64_1
 62
     5
100
AcDbSpline
210
0.0
220
0.0
230
1.0
 70
    11
 71
     3
 72
    17
 73
    13
 74
     0
 42
0.0000000001
 43
0.0000000001
 12
1.0
 22
0.0
 32
0.0
 13
1.0
 23
0.0
 33
0.0
 40
0.0
 40
0.0
 40
0.0
 40
0.0
 40
1.0
 40
1.0
 40
1.0
 40
2.0
 40
2.0
 40
2.0
 40
3.0
 40
3.0
 40
3.0
 40
4.0
 40
4.0
 40
4.0
 40
4.0
 10
751.4661183954962
 20
-89.88212949382503
 30
0.0
 10
751.5733247539965
 20
-90.28222907123688
 30
0.0
 10
751.335887886813
 20
-90.69348178844109
 30
0.0
 10
750.9357883093974
 20
-90.80068814694334
 30
0.0
 10
750.5356887319855
 20
-90.90789450544433
 30
0.0
 10
750.1244360147845
 20
-90.67045763826206
 30
0.0
 10
750.0172296562803
 20
-90.27035806084893
 30
0.0
 10
749.91002329778
 20
-89.8702584834358
 30
0.0
 10
750.1474601649628
 20
-89.45900576623289
 30
0.0
 10
750.5475597423754
 20
-89.35179940772935
 30
0.0
 10
750.9476593197871
 20
-89.24459304922644
 30
0.0
 10
751.358912036992
 20
-89.4820299164119
 30
0.0
 10
751.4661183954962
 20
-89.88212949382503
 30
0.0
  0
SPLINE
  5
10C
330
1F
100
AcDbEntity
  8
_U_5716_U_5C64_1
 62
     5
100
AcDbSpline
210
0.0
220
0.0
230
1.0
 70
    11
 71
     3
 72
    17
 73
    13
 74
     0
 42
0.0000000001
 43
0.0000000001
 12
1.0
 22
0.0
 32
0.0
 13
1.0
 23
0.0
 33
0.0
 40
0.0
 40
0.0
 40
0.0
 40
0.0
 40
1.0
 40
1.0
 40
1.0
 40
2.0
 40
2.0
 40
2.0
 40
3.0
 40
3.0
 40
3.0
 40
4.0
 40
4.0
 40
4.0
 40
4.0
 10
756.7660453335429
 20
-87.4749070786058
 30
0.0
 10
756.9731521145291
 20
-87.8336265461802
 30
0.0
 10
756.8502457479633
 20
-88.29231935009463
 30
0.0
 10
756.4915262803869
 20
-88.49942613108463
 30
0.0
 10
756.1328068128106
 20
-88.70653291207208
 30
0.0
 10
755.6741140088949
 20
-88.58362654550693
 30
0.0
 10
755.4670072279049
 20
-88.22490707793189
 30
0.0
 10
755.2599004469188
 20
-87.86618761035491
 30
0.0
 10
755.3828068134877
 20
-87.40749480644178
 30
0.0
 10
755.7415262810608
 20
-87.20038802545176
 30
0.0
 10
756.1002457486371
 20
-86.99328124446176
 30
0.0
 10
756.5589385525528
 20
-87.11618761103011
 30
0.0
 10
756.7660453335429
 20
-87.4749070786058
 30
0.0
  0
SPLINE
  5
10D
330
1F
100
AcDbEntity
  8
_U_5716_U_5C64_1
 62
     5
100
AcDbSpline
210
0.0
220
0.0
230
1.0
 70
    11
 71
     3
 72
    17
 73
    13
 74
     0
 42
0.0000000001
 43
0.0000000001
 12
1.0
 22
0.0
 32
0.0
 13
1.0
 23
0.0
 33
0.0
 40
0.0
 40
0.0
 40
0.0
 40
0.0
 40
1.0
 40
1.0
 40
1.0
 40
2.0
 40
2.0
 40
2.0
 40
3.0
 40
3.0
 40
3.0
 40
4.0
 40
4.0
 40
4.0
 40
4.0
 10
761.2623466336169
 20
-83.77798674893877
 30
0.0
 10
761.5552398522249
 20
-84.0708799677752
 30
0.0
 10
761.5552398520484
 20
-84.5457537018407
 30
0.0
 10
761.2623466332075
 20
-84.83864692045317
 30
0.0
 10
760.969453414373
 20
-85.13154013906436
 30
0.0
 10
760.4945796803062
 20
-85.13154013888469
 30
0.0
 10
760.2016864616944
 20
-84.8386469200489
 30
0.0
 10
759.9087932430825
 20
-84.54575370121182
 30
0.0
 10
759.908793243266
 20
-84.07087996714634
 30
0.0
 10
760.2016864621005
 20
-83.77798674853257
 30
0.0
 10
760.4945796809344
 20
-83.48509352992009
 30
0.0
 10
760.969453415005
 20
-83.48509353010299
 30
0.0
 10
761.2623466336169
 20
-83.77798674893877
 30
0.0
  0
SPLINE
  5
10E
330
1F
100
AcDbEntity
  8
_U_5716_U_5C64_1
 62
     5
100
AcDbSpline
210
0.0
220
0.0
230
1.0
 70
    11
 71
     3
 72
    17
 73
    13
 74
     0
 42
0.0000000001
 43
0.0000000001
 12
1.0
 22
0.0
 32
0.0
 13
1.0
 23
0.0
 33
0.0
 40
0.0
 40
0.0
 40
0.0
 40
0.0
 40
1.0
 40
1.0
 40
1.0
 40
2.0
 40
2.0
 40
2.0
 40
3.0
 40
3.0
 40
3.0
 40
4.0
 40
4.0
 40
4.0
 40
4.0
 10
764.6486067926261
 20
-79.04330751582694
 30
0.0
 10
765.00732626004
 20
-79.2504142970916
 30
0.0
 10
765.13023262626
 20
-79.70910710109843
 30
0.0
 10
764.9231258449953
 20
-80.06782656851689
 30
0.0
 10
764.71601906373
 20
-80.4265460359328
 30
0.0
 10
764.2573262597225
 20
-80.54945240215078
 30
0.0
 10
763.8986067923047
 20
-80.34234562088741
 30
0.0
 10
763.5398873248907
 20
-80.13523883962276
 30
0.0
 10
763.4169809586747
 20
-79.67654603561465
 30
0.0
 10
763.624087739936
 20
-79.31782656819682
 30
0.0
 10
763.8311945211975
 20
-78.95910710078027
 30
0.0
 10
764.2898873252088
 20
-78.83620073456485
 30
0.0
 10
764.6486067926261
 20
-79.04330751582694
 30
0.0
  0
SPLINE
  5
10F
330
1F
100
AcDbEntity
  8
_U_5716_U_5C64_1
 62
     5
100
AcDbSpline
210
0.0
220
0.0
230
1.0
 70
    11
 71
     3
 72
    17
 73
    13
 74
     0
 42
0.0000000001
 43
0.0000000001
 12
1.0
 22
0.0
 32
0.0
 13
1.0
 23
0.0
 33
0.0
 40
0.0
 40
0.0
 40
0.0
 40
0.0
 40
1.0
 40
1.0
 40
1.0
 40
2.0
 40
2.0
 40
2.0
 40
3.0
 40
3.0
 40
3.0
 40
4.0
 40
4.0
 40
4.0
 40
4.0
 10
766.6940577768086
 20
-73.5935299445617
 30
0.0
 10
767.0941573541363
 20
-73.70073630337133
 30
0.0
 10
767.3315942210093
 20
-74.1119890207552
 30
0.0
 10
767.2243878621983
 20
-74.51208859808749
 30
0.0
 10
767.1171815033906
 20
-74.91218817541719
 30
0.0
 10
766.7059287860061
 20
-75.14962504228758
 30
0.0
 10
766.3058292086752
 20
-75.04241868348052
 30
0.0
 10
765.9057296313441
 20
-74.93521232467025
 30
0.0
 10
765.6682927644744
 20
-74.52395960728572
 30
0.0
 10
765.7754991232821
 20
-74.12386002995345
 30
0.0
 10
765.8827054820891
 20
-73.72376045262374
 30
0.0
 10
766.2939581994775
 20
-73.48632358575462
 30
0.0
 10
766.6940577768086
 20
-73.5935299445617
 30
0.0
  0
SPLINE
  5
110
330
1F
100
AcDbEntity
  8
_U_5716_U_5C64_1
 62
     5
100
AcDbSpline
210
0.0
220
0.0
230
1.0
 70
    11
 71
     3
 72
    17
 73
    13
 74
     0
 42
0.0000000001
 43
0.0000000001
 12
1.0
 22
0.0
 32
0.0
 13
1.0
 23
0.0
 33
0.0
 40
0.0
 40
0.0
 40
0.0
 40
0.0
 40
1.0
 40
1.0
 40
1.0
 40
2.0
 40
2.0
 40
2.0
 40
3.0
 40
3.0
 40
3.0
 40
4.0
 40
4.0
 40
4.0
 40
4.0
 10
767.2593054818666
 20
-67.80004737041992
 30
0.0
 10
767.6735190441103
 20
-67.80004737058933
 30
0.0
 10
768.0093054815417
 20
-68.13583380828962
 30
0.0
 10
768.009305481373
 20
-68.55004737053657
 30
0.0
 10
768.0093054812036
 20
-68.96426093278353
 30
0.0
 10
767.6735190435032
 20
-69.30004737021302
 30
0.0
 10
767.2593054812595
 20
-69.30004737004619
 30
0.0
 10
766.8450919190119
 20
-69.30004736987678
 30
0.0
 10
766.5093054815806
 20
-68.96426093217649
 30
0.0
 10
766.50930548175
 20
-68.55004736992824
 30
0.0
 10
766.5093054819162
 20
-68.13583380768256
 30
0.0
 10
766.845091919619
 20
-67.80004737025308
 30
0.0
 10
767.2593054818666
 20
-67.80004737041992
 30
0.0
  0
SPLINE
  5
111
330
1F
100
AcDbEntity
  8
_U_5716_U_5C64_1
 62
     5
100
AcDbSpline
210
0.0
220
0.0
230
1.0
 70
    11
 71
     3
 72
    17
 73
    13
 74
     0
 42
0.0000000001
 43
0.0000000001
 12
1.0
 22
0.0
 32
0.0
 13
1.0
 23
0.0
 33
0.0
 40
0.0
 40
0.0
 40
0.0
 40
0.0
 40
1.0
 40
1.0
 40
1.0
 40
2.0
 40
2.0
 40
2.0
 40
3.0
 40
3.0
 40
3.0
 40
4.0
 40
4.0
 40
4.0
 40
4.0
 10
766.3058292108165
 20
-62.05767605662495
 30
0.0
 10
766.7059287882322
 20
-61.95046969814258
 30
0.0
 10
767.1171815054261
 20
-62.18790656534281
 30
0.0
 10
767.2243878639091
 20
-62.58800614276107
 30
0.0
 10
767.3315942223915
 20
-62.98810572017869
 30
0.0
 10
767.0941573551906
 20
-63.39935843737199
 30
0.0
 10
766.6940577777749
 20
-63.50656479585692
 30
0.0
 10
766.293958200356
 20
-63.61377115433929
 30
0.0
 10
765.8827054831653
 20
-63.37633428713778
 30
0.0
 10
765.7754991246791
 20
-62.97623470971952
 30
0.0
 10
765.6682927661922
 20
-62.57613513230254
 30
0.0
 10
765.9057296333975
 20
-62.1648824151086
 30
0.0
 10
766.3058292108165
 20
-62.05767605662495
 30
0.0
  0
SPLINE
  5
112
330
1F
100
AcDbEntity
  8
_U_5716_U_5C64_1
 62
     5
100
AcDbSpline
210
0.0
220
0.0
230
1.0
 70
    11
 71
     3
 72
    17
 73
    13
 74
     0
 42
0.0000000001
 43
0.0000000001
 12
1.0
 22
0.0
 32
0.0
 13
1.0
 23
0.0
 33
0.0
 40
0.0
 40
0.0
 40
0.0
 40
0.0
 40
1.0
 40
1.0
 40
1.0
 40
2.0
 40
2.0
 40
2.0
 40
3.0
 40
3.0
 40
3.0
 40
4.0
 40
4.0
 40
4.0
 40
4.0
 10
763.8986067958366
 20
-56.75774911847112
 30
0.0
 10
764.2573262634199
 20
-56.55064233750036
 30
0.0
 10
764.7160190673286
 20
-56.67354870408668
 30
0.0
 10
764.9231258483006
 20
-57.03226817167135
 30
0.0
 10
765.1302326292727
 20
-57.39098763925602
 30
0.0
 10
765.0073262626858
 20
-57.84968044316531
 30
0.0
 10
764.6486067951024
 20
-58.05678722413799
 30
0.0
 10
764.2898873275158
 20
-58.26389400510939
 30
0.0
 10
763.8311945236071
 20
-58.14098763852243
 30
0.0
 10
763.6240877426351
 20
-57.78226817093712
 30
0.0
 10
763.4169809616631
 20
-57.42354870335373
 30
0.0
 10
763.5398873282494
 20
-56.96485589944316
 30
0.0
 10
763.8986067958366
 20
-56.75774911847112
 30
0.0
  0
SPLINE
  5
113
330
1F
100
AcDbEntity
  8
_U_5716_U_5C64_1
 62
     5
100
AcDbSpline
210
0.0
220
0.0
230
1.0
 70
    11
 71
     3
 72
    17
 73
    13
 74
     0
 42
0.0000000001
 43
0.0000000001
 12
1.0
 22
0.0
 32
0.0
 13
1.0
 23
0.0
 33
0.0
 40
0.0
 40
0.0
 40
0.0
 40
0.0
 40
1.0
 40
1.0
 40
1.0
 40
2.0
 40
2.0
 40
2.0
 40
3.0
 40
3.0
 40
3.0
 40
4.0
 40
4.0
 40
4.0
 40
4.0
 10
760.2016864663691
 20
-52.26144781823029
 30
0.0
 10
760.4945796852171
 20
-51.96855459963322
 30
0.0
 10
760.9694534192839
 20
-51.96855459983471
 30
0.0
 10
761.2623466378855
 20
-52.26144781868462
 30
0.0
 10
761.5552398564826
 20
-52.55434103753452
 30
0.0
 10
761.5552398562817
 20
-53.02921477160001
 30
0.0
 10
761.2623466374337
 20
-53.32210799019837
 30
0.0
 10
760.9694534185819
 20
-53.61500120879545
 30
0.0
 10
760.4945796845151
 20
-53.61500120859395
 30
0.0
 10
760.2016864659174
 20
-53.32210798974405
 30
0.0
 10
759.9087932473165
 20
-53.02921477089671
 30
0.0
 10
759.9087932475205
 20
-52.55434103682865
 30
0.0
 10
760.2016864663691
 20
-52.26144781823029
 30
0.0
  0
SPLINE
  5
114
330
1F
100
AcDbEntity
  8
_U_5716_U_5C64_1
 62
     5
100
AcDbSpline
210
0.0
220
0.0
230
1.0
 70
    11
 71
     3
 72
    17
 73
    13
 74
     0
 42
0.0000000001
 43
0.0000000001
 12
1.0
 22
0.0
 32
0.0
 13
1.0
 23
0.0
 33
0.0
 40
0.0
 40
0.0
 40
0.0
 40
0.0
 40
1.0
 40
1.0
 40
1.0
 40
2.0
 40
2.0
 40
2.0
 40
3.0
 40
3.0
 40
3.0
 40
4.0
 40
4.0
 40
4.0
 40
4.0
 10
755.4670072334087
 20
-48.87518765900744
 30
0.0
 10
755.6741140146908
 20
-48.51646819160116
 30
0.0
 10
756.1328068187021
 20
-48.39356182540499
 30
0.0
 10
756.4915262861128
 20
-48.60066860668441
 30
0.0
 10
756.8502457535197
 20
-48.80777538796382
 30
0.0
 10
756.9731521197147
 20
-49.2664681919777
 30
0.0
 10
756.7660453384352
 20
-49.62518765938462
 30
0.0
 10
756.5589385571565
 20
-49.9839071267909
 30
0.0
 10
756.1002457531418
 20
-50.10681349298836
 30
0.0
 10
755.741526285735
 20
-49.8997067117083
 30
0.0
 10
755.382806818328
 20
-49.69259993043081
 30
0.0
 10
755.2599004521293
 20
-49.233907126415
 30
0.0
 10
755.4670072334087
 20
-48.87518765900744
 30
0.0
  0
SPLINE
  5
115
330
1F
100
AcDbEntity
  8
_U_5716_U_5C64_1
 62
     5
100
AcDbSpline
210
0.0
220
0.0
230
1.0
 70
    11
 71
     3
 72
    17
 73
    13
 74
     0
 42
0.0000000001
 43
0.0000000001
 12
1.0
 22
0.0
 32
0.0
 13
1.0
 23
0.0
 33
0.0
 40
0.0
 40
0.0
 40
0.0
 40
0.0
 40
1.0
 40
1.0
 40
1.0
 40
2.0
 40
2.0
 40
2.0
 40
3.0
 40
3.0
 40
3.0
 40
4.0
 40
4.0
 40
4.0
 40
4.0
 10
750.0172296622353
 20
-46.82973667458111
 30
0.0
 10
750.1244360210635
 20
-46.42963709725653
 30
0.0
 10
750.5356887384589
 20
-46.1922002304041
 30
0.0
 10
750.9357883157861
 20
-46.29940658923075
 30
0.0
 10
751.33588789311
 20
-46.40661294805803
 30
0.0
 10
751.5733247599618
 20
-46.81786566545314
 30
0.0
 10
751.4661184011368
 20
-47.21796524277804
 30
0.0
 10
751.3589120423085
 20
-47.6180648201039
 30
0.0
 10
750.947659324913
 20
-47.85550168695504
 30
0.0
 10
750.547559747586
 20
-47.74829532812872
 30
0.0
 10
750.147460170262
 20
-47.64108896930368
 30
0.0
 10
749.9100233034102
 20
-47.22983625190568
 30
0.0
 10
750.0172296622353
 20
-46.82973667458111
 30
0.0
  0
SPLINE
  5
116
330
1F
100
AcDbEntity
  8
_U_5716_U_5C64_1
 62
     7
100
AcDbSpline
210
0.0
220
0.0
230
1.0
 70
     8
 71
     3
 72
    26
 73
    22
 74
     0
 42
0.0000000001
 43
0.0000000001
 12
1.0
 22
0.0
 32
0.0
 13
1.0
 23
0.0
 33
0.0
 40
0.0
 40
0.0
 40
0.0
 40
0.0
 40
1.0
 40
1.0
 40
1.0
 40
2.0
 40
2.0
 40
2.0
 40
3.0
 40
3.0
 40
3.0
 40
4.0
 40
4.0
 40
4.0
 40
5.0
 40
5.0
 40
5.0
 40
6.0
 40
6.0
 40
6.0
 40
7.0
 40
7.0
 40
7.0
 40
7.0
 10
790.0426223711272
 20
-41.59209805951732
 30
0.0
 10
790.1532314680479
 20
-41.59448809451951
 30
0.0
 10
790.2629362274089
 20
-41.60047394793509
 30
0.0
 10
790.3741051523454
 20
-41.60047394794535
 30
0.0
 10
798.741402343994
 20
-41.60047394869646
 30
0.0
 10
805.5244293136645
 20
-34.81744698024413
 30
0.0
 10
805.524429314416
 20
-26.4501497885968
 30
0.0
 10
805.5244293151674
 20
-18.08287412879626
 30
0.0
 10
798.7414023467135
 20
-11.29982562727856
 30
0.0
 10
790.3741051550687
 20
-11.29982562652746
 30
0.0
 10
790.2629362301284
 20
-11.29982562651719
 30
0.0
 10
790.1532314707681
 20
-11.30581147991286
 30
0.0
 10
790.0426223738467
 20
-11.30820151489645
 30
0.0
 10
790.0426223738467
 20
-11.30820151489645
 30
0.0
 10
790.0426223738538
 20
-11.2141934718427
 30
0.0
 10
790.0426223738538
 20
-11.2141934718427
 30
0.0
 10
776.4855256839915
 20
-11.21419347062475
 30
0.0
 10
765.4953050436635
 20
-22.20439257713332
 30
0.0
 10
765.4953050424463
 20
-35.76151079884171
 30
0.0
 10
765.4953050412296
 20
-49.31860748870329
 30
0.0
 10
776.485525679585
 20
-60.30880659718574
 30
0.0
 10
790.042622369444
 20
-60.30880659840368
 30
0.0
  0
SPLINE
  5
117
330
1F
100
AcDbEntity
  8
_U_5716_U_5C64_1
 62
     5
100
AcDbSpline
210
0.0
220
0.0
230
1.0
 70
    11
 71
     3
 72
    17
 73
    13
 74
     0
 42
0.0000000001
 43
0.0000000001
 12
1.0
 22
0.0
 32
0.0
 13
1.0
 23
0.0
 33
0.0
 40
0.0
 40
0.0
 40
0.0
 40
0.0
 40
1.0
 40
1.0
 40
1.0
 40
2.0
 40
2.0
 40
2.0
 40
3.0
 40
3.0
 40
3.0
 40
4.0
 40
4.0
 40
4.0
 40
4.0
 10
789.8833728339142
 20
-23.84072680743063
 30
0.0
 10
791.2640809770171
 20
-23.84072680755383
 30
0.0
 10
792.383370968228
 20
-24.96001679896515
 30
0.0
 10
792.3833709681008
 20
-26.34072494206615
 30
0.0
 10
792.383370967977
 20
-27.72143308516716
 30
0.0
 10
791.2640809765653
 20
-28.84072307637762
 30
0.0
 10
789.8833728334656
 20
-28.84072307625441
 30
0.0
 10
788.5026646903633
 20
-28.84072307612992
 30
0.0
 10
787.3833746991526
 20
-27.72143308471893
 30
0.0
 10
787.3833746992797
 20
-26.34072494161792
 30
0.0
 10
787.3833746994028
 20
-24.96001679851692
 30
0.0
 10
788.5026646908151
 20
-23.84072680730614
 30
0.0
 10
789.8833728339142
 20
-23.84072680743063
 30
0.0
  0
SPLINE
  5
118
330
1F
100
AcDbEntity
  8
_U_5716_U_5C64_1
 62
     7
100
AcDbSpline
210
0.0
220
0.0
230
1.0
 70
    11
 71
     3
 72
    29
 73
    25
 74
     0
 42
0.0000000001
 43
0.0000000001
 12
1.0
 22
0.0
 32
0.0
 13
1.0
 23
0.0
 33
0.0
 40
0.0
 40
0.0
 40
0.0
 40
0.0
 40
1.0
 40
1.0
 40
1.0
 40
2.0
 40
2.0
 40
2.0
 40
3.0
 40
3.0
 40
3.0
 40
4.0
 40
4.0
 40
4.0
 40
5.0
 40
5.0
 40
5.0
 40
6.0
 40
6.0
 40
6.0
 40
7.0
 40
7.0
 40
7.0
 40
8.0
 40
8.0
 40
8.0
 40
8.0
 10
790.0741259732823
 20
-41.56914570228673
 30
0.0
 10
790.0741259732823
 20
-41.56914570228673
 30
0.0
 10
790.0741259732823
 20
-60.28585424117309
 30
0.0
 10
790.0741259732823
 20
-60.28585424117309
 30
0.0
 10
789.9635168763577
 20
-60.28346420618084
 30
0.0
 10
789.8538121170005
 20
-60.27747835277458
 30
0.0
 10
789.7426431920609
 20
-60.27747835277522
 30
0.0
 10
781.3753460004156
 20
-60.27747835277458
 30
0.0
 10
774.592319031352
 20
-67.06050532183684
 30
0.0
 10
774.592319031352
 20
-75.42780251348417
 30
0.0
 10
774.592319031352
 20
-83.79507817328471
 30
0.0
 10
781.3753460004156
 20
-90.57812667419248
 30
0.0
 10
789.7426431920609
 20
-90.57812667419311
 30
0.0
 10
789.8538121170005
 20
-90.57812667419248
 30
0.0
 10
789.9635168763616
 20
-90.5721408207875
 30
0.0
 10
790.0741259732823
 20
-90.56975078579396
 30
0.0
 10
790.0741259732823
 20
-90.56975078579396
 30
0.0
 10
790.0741259732823
 20
-90.66375882884772
 30
0.0
 10
790.0741259732823
 20
-90.66375882884772
 30
0.0
 10
803.6312226631452
 20
-90.66375882884772
 30
0.0
 10
814.6214433024887
 20
-79.6735597213522
 30
0.0
 10
814.6214433024849
 20
-66.11644149964383
 30
0.0
 10
814.6214433024887
 20
-52.55934480978223
 30
0.0
 10
803.6312226631452
 20
-41.56914570228705
 30
0.0
 10
790.0741259732823
 20
-41.56914570228673
 30
0.0
  0
SPLINE
  5
119
330
1F
100
AcDbEntity
  8
_U_5716_U_5C64_1
 62
     5
100
AcDbSpline
210
0.0
220
0.0
230
1.0
 70
    11
 71
     3
 72
    17
 73
    13
 74
     0
 42
0.0000000001
 43
0.0000000001
 12
1.0
 22
0.0
 32
0.0
 13
1.0
 23
0.0
 33
0.0
 40
0.0
 40
0.0
 40
0.0
 40
0.0
 40
1.0
 40
1.0
 40
1.0
 40
2.0
 40
2.0
 40
2.0
 40
3.0
 40
3.0
 40
3.0
 40
4.0
 40
4.0
 40
4.0
 40
4.0
 10
790.2333755120899
 20
-78.03722549324567
 30
0.0
 10
788.852667368987
 20
-78.03722549324567
 30
0.0
 10
787.7333773776774
 20
-76.91793550193542
 30
0.0
 10
787.7333773776774
 20
-75.53722735883441
 30
0.0
 10
787.7333773776774
 20
-74.15651921573341
 30
0.0
 10
788.852667368987
 20
-73.03722922442188
 30
0.0
 10
790.2333755120899
 20
-73.03722922442188
 30
0.0
 10
791.614083655189
 20
-73.03722922442252
 30
0.0
 10
792.7333736465024
 20
-74.15651921573277
 30
0.0
 10
792.7333736465024
 20
-75.53722735883377
 30
0.0
 10
792.7333736465024
 20
-76.91793550193478
 30
0.0
 10
791.614083655189
 20
-78.03722549324631
 30
0.0
 10
790.2333755120899
 20
-78.03722549324567
 30
0.0
  0
SPLINE
  5
11A
330
1F
100
AcDbEntity
  8
_U_5716_U_5C64_1
 62
     7
100
AcDbSpline
210
0.0
220
0.0
230
1.0
 70
    11
 71
     3
 72
    29
 73
    25
 74
     0
 42
0.0000000001
 43
0.0000000001
 12
1.0
 22
0.0
 32
0.0
 13
1.0
 23
0.0
 33
0.0
 40
0.0
 40
0.0
 40
0.0
 40
0.0
 40
1.0
 40
1.0
 40
1.0
 40
2.0
 40
2.0
 40
2.0
 40
3.0
 40
3.0
 40
3.0
 40
4.0
 40
4.0
 40
4.0
 40
5.0
 40
5.0
 40
5.0
 40
6.0
 40
6.0
 40
6.0
 40
7.0
 40
7.0
 40
7.0
 40
8.0
 40
8.0
 40
8.0
 40
8.0
 10
845.6998757685298
 20
-6.13539526189133
 30
0.0
 10
845.6998757685298
 20
-6.13539526189133
 30
0.0
 10
811.3214186441478
 20
-6.13539526189133
 30
0.0
 10
811.3214186441478
 20
-6.13539526189133
 30
0.0
 10
809.4200273821455
 20
-6.13539526189133
 30
0.0
 10
807.8786270665037
 20
-7.861689545856457
 30
0.0
 10
807.8786270665037
 20
-9.99116766082973
 30
0.0
 10
807.8786270665037
 20
-9.99116766082973
 30
0.0
 10
807.8786270665037
 20
-19.91849021558531
 30
0.0
 10
807.8786270665037
 20
-19.91849021558531
 30
0.0
 10
807.8786270665037
 20
-22.04798986240537
 30
0.0
 10
809.4200273821455
 20
-23.7742841463705
 30
0.0
 10
811.3214186441478
 20
-23.7742841463705
 30
0.0
 10
811.3214186441478
 20
-23.7742841463705
 30
0.0
 10
845.6998757685298
 20
-23.7742841463705
 30
0.0
 10
845.6998757685298
 20
-23.7742841463705
 30
0.0
 10
847.6012670305314
 20
-23.7742841463705
 30
0.0
 10
849.1426673461731
 20
-22.04798986240537
 30
0.0
 10
849.1426673461731
 20
-19.91849021558531
 30
0.0
 10
849.1426673461731
 20
-19.91849021558531
 30
0.0
 10
849.1426673461731
 20
-9.99116766082973
 30
0.0
 10
849.1426673461731
 20
-9.99116766082973
 30
0.0
 10
849.1426673461731
 20
-7.861689545856457
 30
0.0
 10
847.6012670305314
 20
-6.13539526189133
 30
0.0
 10
845.6998757685298
 20
-6.13539526189133
 30
0.0
  0
SPLINE
  5
11B
330
1F
100
AcDbEntity
  8
_U_5716_U_5C64_1
 62
     5
100
AcDbSpline
210
0.0
220
0.0
230
1.0
 70
    11
 71
     3
 72
    17
 73
    13
 74
     0
 42
0.0000000001
 43
0.0000000001
 12
1.0
 22
0.0
 32
0.0
 13
1.0
 23
0.0
 33
0.0
 40
0.0
 40
0.0
 40
0.0
 40
0.0
 40
1.0
 40
1.0
 40
1.0
 40
2.0
 40
2.0
 40
2.0
 40
3.0
 40
3.0
 40
3.0
 40
4.0
 40
4.0
 40
4.0
 40
4.0
 10
817.3926673541106
 20
-17.4548378385428
 30
0.0
 10
816.0119592110077
 20
-17.4548378385428
 30
0.0
 10
814.8926692196981
 20
-16.33554784723192
 30
0.0
 10
814.8926692196981
 20
-14.95483970413091
 30
0.0
 10
814.8926692196981
 20
-13.57413156102991
 30
0.0
 10
816.0119592110077
 20
-12.45484156971902
 30
0.0
 10
817.3926673541106
 20
-12.45484156971902
 30
0.0
 10
818.7733754972097
 20
-12.45484156971902
 30
0.0
 10
819.8926654885231
 20
-13.57413156102991
 30
0.0
 10
819.8926654885231
 20
-14.95483970413091
 30
0.0
 10
819.8926654885231
 20
-16.33554784723192
 30
0.0
 10
818.7733754972097
 20
-17.4548378385428
 30
0.0
 10
817.3926673541106
 20
-17.4548378385428
 30
0.0
  0
SPLINE
  5
11C
330
1F
100
AcDbEntity
  8
_U_5716_U_5C64_1
 62
     5
100
AcDbSpline
210
0.0
220
0.0
230
1.0
 70
    11
 71
     3
 72
    17
 73
    13
 74
     0
 42
0.0000000001
 43
0.0000000001
 12
1.0
 22
0.0
 32
0.0
 13
1.0
 23
0.0
 33
0.0
 40
0.0
 40
0.0
 40
0.0
 40
0.0
 40
1.0
 40
1.0
 40
1.0
 40
2.0
 40
2.0
 40
2.0
 40
3.0
 40
3.0
 40
3.0
 40
4.0
 40
4.0
 40
4.0
 40
4.0
 10
840.1035980667489
 20
-17.4548378385428
 30
0.0
 10
838.722889923646
 20
-17.4548378385428
 30
0.0
 10
837.6035999323364
 20
-16.33554784723192
 30
0.0
 10
837.6035999323364
 20
-14.95483970413091
 30
0.0
 10
837.6035999323364
 20
-13.57413156102991
 30
0.0
 10
838.722889923646
 20
-12.45484156971902
 30
0.0
 10
840.1035980667489
 20
-12.45484156971902
 30
0.0
 10
841.484327741696
 20
-12.45484156971902
 30
0.0
 10
842.6036177330056
 20
-13.57413156102991
 30
0.0
 10
842.6036177330056
 20
-14.95483970413091
 30
0.0
 10
842.6036177330056
 20
-16.33554784723192
 30
0.0
 10
841.484327741696
 20
-17.4548378385428
 30
0.0
 10
840.1035980667489
 20
-17.4548378385428
 30
0.0
  0
SPLINE
  5
11D
330
1F
100
AcDbEntity
  8
_U_5716_U_5C64_1
 62
     7
100
AcDbSpline
210
0.0
220
0.0
230
1.0
 70
    11
 71
     3
 72
    29
 73
    25
 74
     0
 42
0.0000000001
 43
0.0000000001
 12
1.0
 22
0.0
 32
0.0
 13
1.0
 23
0.0
 33
0.0
 40
0.0
 40
0.0
 40
0.0
 40
0.0
 40
1.0
 40
1.0
 40
1.0
 40
2.0
 40
2.0
 40
2.0
 40
3.0
 40
3.0
 40
3.0
 40
4.0
 40
4.0
 40
4.0
 40
5.0
 40
5.0
 40
5.0
 40
6.0
 40
6.0
 40
6.0
 40
7.0
 40
7.0
 40
7.0
 40
8.0
 40
8.0
 40
8.0
 40
8.0
 10
845.6998757685298
 20
-26.24388402321654
 30
0.0
 10
845.6998757685298
 20
-26.24388402321654
 30
0.0
 10
811.3214186441478
 20
-26.24388402321654
 30
0.0
 10
811.3214186441478
 20
-26.24388402321654
 30
0.0
 10
809.4200273821455
 20
-26.24388402321654
 30
0.0
 10
807.8786270665037
 20
-27.97017830718167
 30
0.0
 10
807.8786270665037
 20
-30.09965642215494
 30
0.0
 10
807.8786270665037
 20
-30.09965642215494
 30
0.0
 10
807.8786270665037
 20
-40.02697897691053
 30
0.0
 10
807.8786270665037
 20
-40.02697897691053
 30
0.0
 10
807.8786270665037
 20
-42.15647862373059
 30
0.0
 10
809.4200273821455
 20
-43.88277290769571
 30
0.0
 10
811.3214186441478
 20
-43.88277290769571
 30
0.0
 10
811.3214186441478
 20
-43.88277290769571
 30
0.0
 10
845.6998757685298
 20
-43.88277290769571
 30
0.0
 10
845.6998757685298
 20
-43.88277290769571
 30
0.0
 10
847.6012670305314
 20
-43.88277290769571
 30
0.0
 10
849.1426673461731
 20
-42.15647862373059
 30
0.0
 10
849.1426673461731
 20
-40.02697897691053
 30
0.0
 10
849.1426673461731
 20
-40.02697897691053
 30
0.0
 10
849.1426673461731
 20
-30.09965642215494
 30
0.0
 10
849.1426673461731
 20
-30.09965642215494
 30
0.0
 10
849.1426673461731
 20
-27.97017830718167
 30
0.0
 10
847.6012670305314
 20
-26.24388402321654
 30
0.0
 10
845.6998757685298
 20
-26.24388402321654
 30
0.0
  0
SPLINE
  5
11E
330
1F
100
AcDbEntity
  8
_U_5716_U_5C64_1
 62
     5
100
AcDbSpline
210
0.0
220
0.0
230
1.0
 70
    11
 71
     3
 72
    17
 73
    13
 74
     0
 42
0.0000000001
 43
0.0000000001
 12
1.0
 22
0.0
 32
0.0
 13
1.0
 23
0.0
 33
0.0
 40
0.0
 40
0.0
 40
0.0
 40
0.0
 40
1.0
 40
1.0
 40
1.0
 40
2.0
 40
2.0
 40
2.0
 40
3.0
 40
3.0
 40
3.0
 40
4.0
 40
4.0
 40
4.0
 40
4.0
 10
817.3926673541106
 20
-37.56332659986802
 30
0.0
 10
816.0119592110077
 20
-37.56332659986802
 30
0.0
 10
814.8926692196981
 20
-36.44403660855713
 30
0.0
 10
814.8926692196981
 20
-35.06332846545613
 30
0.0
 10
814.8926692196981
 20
-33.68262032235513
 30
0.0
 10
816.0119592110077
 20
-32.56333033104423
 30
0.0
 10
817.3926673541106
 20
-32.56333033104423
 30
0.0
 10
818.7733754972097
 20
-32.56333033104423
 30
0.0
 10
819.8926654885231
 20
-33.68262032235513
 30
0.0
 10
819.8926654885231
 20
-35.06332846545613
 30
0.0
 10
819.8926654885231
 20
-36.44403660855713
 30
0.0
 10
818.7733754972097
 20
-37.56332659986802
 30
0.0
 10
817.3926673541106
 20
-37.56332659986802
 30
0.0
  0
SPLINE
  5
11F
330
1F
100
AcDbEntity
  8
_U_5716_U_5C64_1
 62
     5
100
AcDbSpline
210
0.0
220
0.0
230
1.0
 70
    11
 71
     3
 72
    17
 73
    13
 74
     0
 42
0.0000000001
 43
0.0000000001
 12
1.0
 22
0.0
 32
0.0
 13
1.0
 23
0.0
 33
0.0
 40
0.0
 40
0.0
 40
0.0
 40
0.0
 40
1.0
 40
1.0
 40
1.0
 40
2.0
 40
2.0
 40
2.0
 40
3.0
 40
3.0
 40
3.0
 40
4.0
 40
4.0
 40
4.0
 40
4.0
 10
840.1035980667489
 20
-37.56332659986802
 30
0.0
 10
838.722889923646
 20
-37.56332659986802
 30
0.0
 10
837.6035999323364
 20
-36.44403660855713
 30
0.0
 10
837.6035999323364
 20
-35.06332846545613
 30
0.0
 10
837.6035999323364
 20
-33.68262032235513
 30
0.0
 10
838.722889923646
 20
-32.56333033104423
 30
0.0
 10
840.1035980667489
 20
-32.56333033104423
 30
0.0
 10
841.484327741696
 20
-32.56333033104423
 30
0.0
 10
842.6036177330056
 20
-33.68262032235513
 30
0.0
 10
842.6036177330056
 20
-35.06332846545613
 30
0.0
 10
842.6036177330056
 20
-36.44403660855713
 30
0.0
 10
841.484327741696
 20
-37.56332659986802
 30
0.0
 10
840.1035980667489
 20
-37.56332659986802
 30
0.0
  0
SPLINE
  5
120
330
1F
100
AcDbEntity
  8
_U_5716_U_5C64_1
 62
     7
100
AcDbSpline
210
0.0
220
0.0
230
1.0
 70
    11
 71
     3
 72
    29
 73
    25
 74
     0
 42
0.0000000001
 43
0.0000000001
 12
1.0
 22
0.0
 32
0.0
 13
1.0
 23
0.0
 33
0.0
 40
0.0
 40
0.0
 40
0.0
 40
0.0
 40
1.0
 40
1.0
 40
1.0
 40
2.0
 40
2.0
 40
2.0
 40
3.0
 40
3.0
 40
3.0
 40
4.0
 40
4.0
 40
4.0
 40
5.0
 40
5.0
 40
5.0
 40
6.0
 40
6.0
 40
6.0
 40
7.0
 40
7.0
 40
7.0
 40
8.0
 40
8.0
 40
8.0
 40
8.0
 10
848.1146252843059
 20
-50.30004665388821
 30
0.0
 10
848.1146252843059
 20
-50.30004665388821
 30
0.0
 10
820.8261746685681
 20
-50.30004665388821
 30
0.0
 10
820.8261746685681
 20
-50.30004665388821
 30
0.0
 10
818.696696553598
 20
-50.30004665388821
 30
0.0
 10
816.9704022696317
 20
-52.02634093785333
 30
0.0
 10
816.9704022696317
 20
-54.15581905282661
 30
0.0
 10
816.9704022696317
 20
-54.15581905282661
 30
0.0
 10
816.9704022696317
 20
-81.4442696685631
 30
0.0
 10
816.9704022696317
 20
-81.4442696685631
 30
0.0
 10
816.9704022696317
 20
-83.57374778353636
 30
0.0
 10
818.696696553598
 20
-85.3000420675015
 30
0.0
 10
820.8261746685681
 20
-85.3000420675015
 30
0.0
 10
820.8261746685681
 20
-85.3000420675015
 30
0.0
 10
848.1146252843059
 20
-85.3000420675015
 30
0.0
 10
848.1146252843059
 20
-85.3000420675015
 30
0.0
 10
850.2441249311279
 20
-85.3000420675015
 30
0.0
 10
851.9703976832456
 20
-83.57374778353636
 30
0.0
 10
851.9703976832456
 20
-81.4442696685631
 30
0.0
 10
851.9703976832456
 20
-81.4442696685631
 30
0.0
 10
851.9703976832456
 20
-54.15581905282661
 30
0.0
 10
851.9703976832456
 20
-54.15581905282661
 30
0.0
 10
851.9703976832456
 20
-52.02634093785333
 30
0.0
 10
850.2441249311279
 20
-50.30004665388821
 30
0.0
 10
848.1146252843059
 20
-50.30004665388821
 30
0.0
  0
SPLINE
  5
121
330
1F
100
AcDbEntity
  8
_U_5716_U_5C64_1
 62
     5
100
AcDbSpline
210
0.0
220
0.0
230
1.0
 70
    11
 71
     3
 72
    17
 73
    13
 74
     0
 42
0.0000000001
 43
0.0000000001
 12
1.0
 22
0.0
 32
0.0
 13
1.0
 23
0.0
 33
0.0
 40
0.0
 40
0.0
 40
0.0
 40
0.0
 40
1.0
 40
1.0
 40
1.0
 40
2.0
 40
2.0
 40
2.0
 40
3.0
 40
3.0
 40
3.0
 40
4.0
 40
4.0
 40
4.0
 40
4.0
 10
834.4704107423629
 20
-70.30003172918335
 30
0.0
 10
833.08970259926
 20
-70.30003172918335
 30
0.0
 10
831.9704126079504
 20
-69.18076326971925
 30
0.0
 10
831.9704126079504
 20
-67.80003359477146
 30
0.0
 10
831.9704126079504
 20
-66.41932545167046
 30
0.0
 10
833.08970259926
 20
-65.30003546035957
 30
0.0
 10
834.4704107423629
 20
-65.30003546035957
 30
0.0
 10
835.851118885462
 20
-65.30003546035957
 30
0.0
 10
836.9704088767717
 20
-66.41932545167046
 30
0.0
 10
836.9704088767717
 20
-67.80003359477146
 30
0.0
 10
836.9704088767717
 20
-69.18076326971925
 30
0.0
 10
835.851118885462
 20
-70.30003172918335
 30
0.0
 10
834.4704107423629
 20
-70.30003172918335
 30
0.0
  0
SPLINE
  5
122
330
1F
100
AcDbEntity
  8
_U_5716_U_5C64_1
 62
     7
100
AcDbSpline
210
0.0
220
0.0
230
1.0
 70
    11
 71
     3
 72
    17
 73
    13
 74
     0
 42
0.0000000001
 43
0.0000000001
 12
1.0
 22
0.0
 32
0.0
 13
1.0
 23
0.0
 33
0.0
 40
0.0
 40
0.0
 40
0.0
 40
0.0
 40
1.0
 40
1.0
 40
1.0
 40
2.0
 40
2.0
 40
2.0
 40
3.0
 40
3.0
 40
3.0
 40
4.0
 40
4.0
 40
4.0
 40
4.0
 10
898.9976165165858
 20
-17.87378726913943
 30
0.0
 10
898.9976165163349
 20
-12.35093316488864
 30
0.0
 10
894.5204780827366
 20
-7.873773199846251
 30
0.0
 10
888.9976239784884
 20
-7.873773200093948
 30
0.0
 10
883.4747698742364
 20
-7.873773200341964
 30
0.0
 10
878.9976314410397
 20
-12.35093316578669
 30
0.0
 10
878.9976314412907
 20
-17.87378727003749
 30
0.0
 10
878.9976314415377
 20
-23.39661984244151
 30
0.0
 10
883.474769875136
 20
-27.87377980748389
 30
0.0
 10
888.9976239793842
 20
-27.87377980723587
 30
0.0
 10
894.5204780836364
 20
-27.87377980698818
 30
0.0
 10
898.9976165168329
 20
-23.39661984154345
 30
0.0
 10
898.9976165165858
 20
-17.87378726913943
 30
0.0
  0
SPLINE
  5
123
330
1F
100
AcDbEntity
  8
_U_5716_U_5C64_1
 62
     5
100
AcDbSpline
210
0.0
220
0.0
230
1.0
 70
    11
 71
     3
 72
    17
 73
    13
 74
     0
 42
0.0000000001
 43
0.0000000001
 12
1.0
 22
0.0
 32
0.0
 13
1.0
 23
0.0
 33
0.0
 40
0.0
 40
0.0
 40
0.0
 40
0.0
 40
1.0
 40
1.0
 40
1.0
 40
2.0
 40
2.0
 40
2.0
 40
3.0
 40
3.0
 40
3.0
 40
4.0
 40
4.0
 40
4.0
 40
4.0
 10
886.4976258445238
 20
-17.8737872697006
 30
0.0
 10
886.4976258444641
 20
-16.49305759475281
 30
0.0
 10
887.6169158357243
 20
-15.37378913523865
 30
0.0
 10
888.9976239788234
 20
-15.37378913517641
 30
0.0
 10
890.3783321219263
 20
-15.37378913511449
 30
0.0
 10
891.4976221132854
 20
-16.49305759452822
 30
0.0
 10
891.4976221133488
 20
-17.873787269476
 30
0.0
 10
891.4976221134124
 20
-19.25449541257701
 30
0.0
 10
890.3783321221483
 20
-20.37378540393827
 30
0.0
 10
888.9976239790493
 20
-20.37378540400019
 30
0.0
 10
887.6169158359463
 20
-20.37378540406244
 30
0.0
 10
886.4976258445873
 20
-19.2544954128016
 30
0.0
 10
886.4976258445238
 20
-17.8737872697006
 30
0.0
  0
SPLINE
  5
124
330
1F
100
AcDbEntity
  8
_U_5716_U_5C64_1
 62
     7
100
AcDbSpline
210
0.0
220
0.0
230
1.0
 70
    11
 71
     3
 72
    17
 73
    13
 74
     0
 42
0.0000000001
 43
0.0000000001
 12
1.0
 22
0.0
 32
0.0
 13
1.0
 23
0.0
 33
0.0
 40
0.0
 40
0.0
 40
0.0
 40
0.0
 40
1.0
 40
1.0
 40
1.0
 40
2.0
 40
2.0
 40
2.0
 40
3.0
 40
3.0
 40
3.0
 40
4.0
 40
4.0
 40
4.0
 40
4.0
 10
898.9976165176722
 20
-38.57912704805548
 30
0.0
 10
898.9976165174252
 20
-33.05627294380468
 30
0.0
 10
894.5204780838269
 20
-28.57911297876229
 30
0.0
 10
888.9976239795748
 20
-28.57911297900999
 30
0.0
 10
883.4747698753259
 20
-28.579112979258
 30
0.0
 10
878.99763144213
 20
-33.05627294470273
 30
0.0
 10
878.997631442377
 20
-38.57912704895353
 30
0.0
 10
878.9976314426241
 20
-44.10195962135754
 30
0.0
 10
883.4747698762224
 20
-48.57911958639993
 30
0.0
 10
888.9976239804745
 20
-48.57911958615191
 30
0.0
 10
894.5204780847233
 20
-48.57911958590422
 30
0.0
 10
898.9976165179193
 20
-44.10195962045949
 30
0.0
 10
898.9976165176722
 20
-38.57912704805548
 30
0.0
  0
SPLINE
  5
125
330
1F
100
AcDbEntity
  8
_U_5716_U_5C64_1
 62
     5
100
AcDbSpline
210
0.0
220
0.0
230
1.0
 70
    11
 71
     3
 72
    17
 73
    13
 74
     0
 42
0.0000000001
 43
0.0000000001
 12
1.0
 22
0.0
 32
0.0
 13
1.0
 23
0.0
 33
0.0
 40
0.0
 40
0.0
 40
0.0
 40
0.0
 40
1.0
 40
1.0
 40
1.0
 40
2.0
 40
2.0
 40
2.0
 40
3.0
 40
3.0
 40
3.0
 40
4.0
 40
4.0
 40
4.0
 40
4.0
 10
886.497625845614
 20
-38.57912704861664
 30
0.0
 10
886.4976258455505
 20
-37.19839737366885
 30
0.0
 10
887.6169158368107
 20
-36.07912891415469
 30
0.0
 10
888.9976239799137
 20
-36.07912891409245
 30
0.0
 10
890.3783321230127
 20
-36.07912891403053
 30
0.0
 10
891.497622114375
 20
-37.19839737344426
 30
0.0
 10
891.4976221144352
 20
-38.57912704839205
 30
0.0
 10
891.4976221144988
 20
-39.95983519149305
 30
0.0
 10
890.3783321232386
 20
-41.07912518285431
 30
0.0
 10
888.9976239801357
 20
-41.07912518291624
 30
0.0
 10
887.6169158370366
 20
-41.07912518297848
 30
0.0
 10
886.4976258456744
 20
-39.95983519171764
 30
0.0
 10
886.497625845614
 20
-38.57912704861664
 30
0.0
  0
SPLINE
  5
126
330
1F
100
AcDbEntity
  8
_U_5716_U_5C64_1
 62
     7
100
AcDbSpline
210
0.0
220
0.0
230
1.0
 70
    11
 71
     3
 72
    17
 73
    13
 74
     0
 42
0.0000000001
 43
0.0000000001
 12
1.0
 22
0.0
 32
0.0
 13
1.0
 23
0.0
 33
0.0
 40
0.0
 40
0.0
 40
0.0
 40
0.0
 40
1.0
 40
1.0
 40
1.0
 40
2.0
 40
2.0
 40
2.0
 40
3.0
 40
3.0
 40
3.0
 40
4.0
 40
4.0
 40
4.0
 40
4.0
 10
898.9976165187766
 20
-59.63168400522911
 30
0.0
 10
898.9976165185257
 20
-54.10882990097831
 30
0.0
 10
894.5204780849313
 20
-49.63166993593625
 30
0.0
 10
888.9976239806792
 20
-49.63166993618395
 30
0.0
 10
883.4747698764271
 20
-49.63166993643164
 30
0.0
 10
878.9976314432305
 20
-54.1088299018767
 30
0.0
 10
878.9976314434814
 20
-59.63168400612749
 30
0.0
 10
878.9976314437284
 20
-65.15451657853151
 30
0.0
 10
883.4747698773267
 20
-69.63167654357358
 30
0.0
 10
888.9976239815788
 20
-69.63167654332588
 30
0.0
 10
894.5204780858271
 20
-69.63167654307819
 30
0.0
 10
898.9976165190236
 20
-65.15451657763313
 30
0.0
 10
898.9976165187766
 20
-59.63168400522911
 30
0.0
  0
SPLINE
  5
127
330
1F
100
AcDbEntity
  8
_U_5716_U_5C64_1
 62
     5
100
AcDbSpline
210
0.0
220
0.0
230
1.0
 70
    11
 71
     3
 72
    17
 73
    13
 74
     0
 42
0.0000000001
 43
0.0000000001
 12
1.0
 22
0.0
 32
0.0
 13
1.0
 23
0.0
 33
0.0
 40
0.0
 40
0.0
 40
0.0
 40
0.0
 40
1.0
 40
1.0
 40
1.0
 40
2.0
 40
2.0
 40
2.0
 40
3.0
 40
3.0
 40
3.0
 40
4.0
 40
4.0
 40
4.0
 40
4.0
 10
886.4976258467145
 20
-59.6316840057906
 30
0.0
 10
886.4976258466548
 20
-58.25095433084282
 30
0.0
 10
887.616915837915
 20
-57.13168587132866
 30
0.0
 10
888.9976239810142
 20
-57.13168587126641
 30
0.0
 10
890.378332124117
 20
-57.13168587120481
 30
0.0
 10
891.4976221154793
 20
-58.25095433061822
 30
0.0
 10
891.4976221155396
 20
-59.63168400556601
 30
0.0
 10
891.4976221156031
 20
-61.01239214866701
 30
0.0
 10
890.3783321243429
 20
-62.13168214002859
 30
0.0
 10
888.99762398124
 20
-62.1316821400902
 30
0.0
 10
887.6169158381409
 20
-62.13168214015244
 30
0.0
 10
886.4976258467781
 20
-61.01239214889161
 30
0.0
 10
886.4976258467145
 20
-59.6316840057906
 30
0.0
  0
SPLINE
  5
128
330
1F
100
AcDbEntity
  8
_U_5716_U_5C64_1
 62
     7
100
AcDbSpline
210
0.0
220
0.0
230
1.0
 70
    11
 71
     3
 72
    17
 73
    13
 74
     0
 42
0.0000000001
 43
0.0000000001
 12
1.0
 22
0.0
 32
0.0
 13
1.0
 23
0.0
 33
0.0
 40
0.0
 40
0.0
 40
0.0
 40
0.0
 40
1.0
 40
1.0
 40
1.0
 40
2.0
 40
2.0
 40
2.0
 40
3.0
 40
3.0
 40
3.0
 40
4.0
 40
4.0
 40
4.0
 40
4.0
 10
898.9976165198983
 20
-81.11195494985854
 30
0.0
 10
898.9976165196513
 20
-75.58910084560775
 30
0.0
 10
894.520478086053
 20
-71.11194088056568
 30
0.0
 10
888.9976239818009
 20
-71.11194088081338
 30
0.0
 10
883.4747698775526
 20
-71.11194088106107
 30
0.0
 10
878.9976314443561
 20
-75.58910084650611
 30
0.0
 10
878.9976314446031
 20
-81.11195495075691
 30
0.0
 10
878.9976314448502
 20
-86.63478752316094
 30
0.0
 10
883.4747698784485
 20
-91.111947488203
 30
0.0
 10
888.9976239827006
 20
-91.1119474879553
 30
0.0
 10
894.5204780869487
 20
-91.11194748770761
 30
0.0
 10
898.9976165201454
 20
-86.63478752226256
 30
0.0
 10
898.9976165198983
 20
-81.11195494985854
 30
0.0
  0
SPLINE
  5
129
330
1F
100
AcDbEntity
  8
_U_5716_U_5C64_1
 62
     5
100
AcDbSpline
210
0.0
220
0.0
230
1.0
 70
    11
 71
     3
 72
    17
 73
    13
 74
     0
 42
0.0000000001
 43
0.0000000001
 12
1.0
 22
0.0
 32
0.0
 13
1.0
 23
0.0
 33
0.0
 40
0.0
 40
0.0
 40
0.0
 40
0.0
 40
1.0
 40
1.0
 40
1.0
 40
2.0
 40
2.0
 40
2.0
 40
3.0
 40
3.0
 40
3.0
 40
4.0
 40
4.0
 40
4.0
 40
4.0
 10
886.4976258478401
 20
-81.11195495042003
 30
0.0
 10
886.4976258477766
 20
-79.73122527547224
 30
0.0
 10
887.6169158390368
 20
-78.61195681595808
 30
0.0
 10
888.9976239821397
 20
-78.61195681589584
 30
0.0
 10
890.3783321252388
 20
-78.61195681583423
 30
0.0
 10
891.4976221166016
 20
-79.73122527524764
 30
0.0
 10
891.4976221166613
 20
-81.11195495019543
 30
0.0
 10
891.4976221167249
 20
-82.49266309329643
 30
0.0
 10
890.3783321254647
 20
-83.61195308465801
 30
0.0
 10
888.9976239823617
 20
-83.61195308471962
 30
0.0
 10
887.6169158392627
 20
-83.61195308478186
 30
0.0
 10
886.4976258478998
 20
-82.49266309352103
 30
0.0
 10
886.4976258478401
 20
-81.11195495042003
 30
0.0
  0
SPLINE
  5
12A
330
1F
100
AcDbEntity
  8
_U_5716_U_5C64_1
 62
     7
100
AcDbSpline
210
0.0
220
0.0
230
1.0
 70
    11
 71
     3
 72
    17
 73
    13
 74
     0
 42
0.0000000001
 43
0.0000000001
 12
1.0
 22
0.0
 32
0.0
 13
1.0
 23
0.0
 33
0.0
 40
0.0
 40
0.0
 40
0.0
 40
0.0
 40
1.0
 40
1.0
 40
1.0
 40
2.0
 40
2.0
 40
2.0
 40
3.0
 40
3.0
 40
3.0
 40
4.0
 40
4.0
 40
4.0
 40
4.0
 10
875.6182565353818
 20
-17.88382111078972
 30
0.0
 10
875.6182565351353
 20
-12.36096700653892
 30
0.0
 10
871.141118101537
 20
-7.88380704149654
 30
0.0
 10
865.618263997285
 20
-7.883807041744557
 30
0.0
 10
860.0954098930362
 20
-7.883807041992253
 30
0.0
 10
855.6182714598402
 20
-12.36096700743698
 30
0.0
 10
855.6182714600866
 20
-17.88382111168778
 30
0.0
 10
855.6182714603343
 20
-23.40665368409179
 30
0.0
 10
860.0954098939326
 20
-27.88381364913418
 30
0.0
 10
865.6182639981846
 20
-27.88381364888648
 30
0.0
 10
871.1411181024329
 20
-27.88381364863847
 30
0.0
 10
875.6182565356295
 20
-23.40665368319374
 30
0.0
 10
875.6182565353818
 20
-17.88382111078972
 30
0.0
  0
SPLINE
  5
12B
330
1F
100
AcDbEntity
  8
_U_5716_U_5C64_1
 62
     5
100
AcDbSpline
210
0.0
220
0.0
230
1.0
 70
    11
 71
     3
 72
    17
 73
    13
 74
     0
 42
0.0000000001
 43
0.0000000001
 12
1.0
 22
0.0
 32
0.0
 13
1.0
 23
0.0
 33
0.0
 40
0.0
 40
0.0
 40
0.0
 40
0.0
 40
1.0
 40
1.0
 40
1.0
 40
2.0
 40
2.0
 40
2.0
 40
3.0
 40
3.0
 40
3.0
 40
4.0
 40
4.0
 40
4.0
 40
4.0
 10
863.1182658633243
 20
-17.88382111135121
 30
0.0
 10
863.1182658632607
 20
-16.50309143640342
 30
0.0
 10
864.2375558545209
 20
-15.38382297688894
 30
0.0
 10
865.6182639976238
 20
-15.38382297682702
 30
0.0
 10
866.9989721407229
 20
-15.38382297676477
 30
0.0
 10
868.1182621320851
 20
-16.50309143617883
 30
0.0
 10
868.1182621321448
 20
-17.88382111112661
 30
0.0
 10
868.118262132209
 20
-19.26452925422762
 30
0.0
 10
866.9989721409481
 20
-20.38381924558856
 30
0.0
 10
865.6182639978458
 20
-20.38381924565081
 30
0.0
 10
864.2375558547461
 20
-20.38381924571273
 30
0.0
 10
863.1182658633838
 20
-19.26452925445221
 30
0.0
 10
863.1182658633243
 20
-17.88382111135121
 30
0.0
  0
SPLINE
  5
12C
330
1F
100
AcDbEntity
  8
_U_5716_U_5C64_1
 62
     7
100
AcDbSpline
210
0.0
220
0.0
230
1.0
 70
    11
 71
     3
 72
    17
 73
    13
 74
     0
 42
0.0000000001
 43
0.0000000001
 12
1.0
 22
0.0
 32
0.0
 13
1.0
 23
0.0
 33
0.0
 40
0.0
 40
0.0
 40
0.0
 40
0.0
 40
1.0
 40
1.0
 40
1.0
 40
2.0
 40
2.0
 40
2.0
 40
3.0
 40
3.0
 40
3.0
 40
4.0
 40
4.0
 40
4.0
 40
4.0
 10
875.6182565364688
 20
-38.58916088970576
 30
0.0
 10
875.6182565362218
 20
-33.06630678545496
 30
0.0
 10
871.1411181026235
 20
-28.58914682041258
 30
0.0
 10
865.6182639983746
 20
-28.58914682066059
 30
0.0
 10
860.0954098941226
 20
-28.58914682090829
 30
0.0
 10
855.6182714609266
 20
-33.06630678635302
 30
0.0
 10
855.6182714611737
 20
-38.5891608906035
 30
0.0
 10
855.6182714614239
 20
-44.11199346300752
 30
0.0
 10
860.0954098950222
 20
-48.58915342805022
 30
0.0
 10
865.618263999271
 20
-48.58915342780252
 30
0.0
 10
871.1411181035231
 20
-48.58915342755451
 30
0.0
 10
875.6182565367191
 20
-44.11199346210977
 30
0.0
 10
875.6182565364688
 20
-38.58916088970576
 30
0.0
  0
SPLINE
  5
12D
330
1F
100
AcDbEntity
  8
_U_5716_U_5C64_1
 62
     5
100
AcDbSpline
210
0.0
220
0.0
230
1.0
 70
    11
 71
     3
 72
    17
 73
    13
 74
     0
 42
0.0000000001
 43
0.0000000001
 12
1.0
 22
0.0
 32
0.0
 13
1.0
 23
0.0
 33
0.0
 40
0.0
 40
0.0
 40
0.0
 40
0.0
 40
1.0
 40
1.0
 40
1.0
 40
2.0
 40
2.0
 40
2.0
 40
3.0
 40
3.0
 40
3.0
 40
4.0
 40
4.0
 40
4.0
 40
4.0
 10
863.1182658644107
 20
-38.58916089026725
 30
0.0
 10
863.1182658643503
 20
-37.20843121531946
 30
0.0
 10
864.2375558556112
 20
-36.08916275580498
 30
0.0
 10
865.6182639987102
 20
-36.08916275574306
 30
0.0
 10
866.9989721418132
 20
-36.08916275568081
 30
0.0
 10
868.1182621331715
 20
-37.20843121509519
 30
0.0
 10
868.118262133235
 20
-38.58916089004266
 30
0.0
 10
868.1182621332954
 20
-39.96986903314366
 30
0.0
 10
866.9989721420352
 20
-41.0891590245046
 30
0.0
 10
865.6182639989354
 20
-41.08915902456685
 30
0.0
 10
864.2375558558332
 20
-41.08915902462877
 30
0.0
 10
863.1182658644741
 20
-39.96986903336825
 30
0.0
 10
863.1182658644107
 20
-38.58916089026725
 30
0.0
  0
SPLINE
  5
12E
330
1F
100
AcDbEntity
  8
_U_5716_U_5C64_1
 62
     7
100
AcDbSpline
210
0.0
220
0.0
230
1.0
 70
    11
 71
     3
 72
    17
 73
    13
 74
     0
 42
0.0000000001
 43
0.0000000001
 12
1.0
 22
0.0
 32
0.0
 13
1.0
 23
0.0
 33
0.0
 40
0.0
 40
0.0
 40
0.0
 40
0.0
 40
1.0
 40
1.0
 40
1.0
 40
2.0
 40
2.0
 40
2.0
 40
3.0
 40
3.0
 40
3.0
 40
4.0
 40
4.0
 40
4.0
 40
4.0
 10
875.6182565375725
 20
-59.64171784687972
 30
0.0
 10
875.6182565373261
 20
-54.11886374262892
 30
0.0
 10
871.1411181037279
 20
-49.64170377758686
 30
0.0
 10
865.6182639994757
 20
-49.64170377783456
 30
0.0
 10
860.0954098952269
 20
-49.64170377808257
 30
0.0
 10
855.618271462031
 20
-54.11886374352731
 30
0.0
 10
855.6182714622773
 20
-59.6417178477781
 30
0.0
 10
855.6182714625251
 20
-65.16455042018211
 30
0.0
 10
860.0954098961233
 20
-69.64171038522419
 30
0.0
 10
865.6182640003755
 20
-69.64171038497649
 30
0.0
 10
871.1411181046275
 20
-69.64171038472878
 30
0.0
 10
875.6182565378202
 20
-65.16455041928374
 30
0.0
 10
875.6182565375725
 20
-59.64171784687972
 30
0.0
  0
SPLINE
  5
12F
330
1F
100
AcDbEntity
  8
_U_5716_U_5C64_1
 62
     5
100
AcDbSpline
210
0.0
220
0.0
230
1.0
 70
    11
 71
     3
 72
    17
 73
    13
 74
     0
 42
0.0000000001
 43
0.0000000001
 12
1.0
 22
0.0
 32
0.0
 13
1.0
 23
0.0
 33
0.0
 40
0.0
 40
0.0
 40
0.0
 40
0.0
 40
1.0
 40
1.0
 40
1.0
 40
2.0
 40
2.0
 40
2.0
 40
3.0
 40
3.0
 40
3.0
 40
4.0
 40
4.0
 40
4.0
 40
4.0
 10
863.1182658655143
 20
-59.64171784744121
 30
0.0
 10
863.1182658654515
 20
-58.26098817249343
 30
0.0
 10
864.2375558567117
 20
-57.14171971297862
 30
0.0
 10
865.618263999814
 20
-57.14171971291702
 30
0.0
 10
866.9989721429137
 20
-57.14171971285477
 30
0.0
 10
868.1182621342758
 20
-58.26098817226883
 30
0.0
 10
868.1182621343394
 20
-59.64171784721662
 30
0.0
 10
868.1182621343997
 20
-61.02242599031762
 30
0.0
 10
866.9989721431389
 20
-62.14171598167856
 30
0.0
 10
865.6182640000399
 20
-62.14171598174081
 30
0.0
 10
864.2375558569369
 20
-62.14171598180241
 30
0.0
 10
863.1182658655785
 20
-61.02242599054221
 30
0.0
 10
863.1182658655143
 20
-59.64171784744121
 30
0.0
  0
SPLINE
  5
130
330
1F
100
AcDbEntity
  8
_U_5716_U_5C64_1
 62
     7
100
AcDbSpline
210
0.0
220
0.0
230
1.0
 70
    11
 71
     3
 72
    17
 73
    13
 74
     0
 42
0.0000000001
 43
0.0000000001
 12
1.0
 22
0.0
 32
0.0
 13
1.0
 23
0.0
 33
0.0
 40
0.0
 40
0.0
 40
0.0
 40
0.0
 40
1.0
 40
1.0
 40
1.0
 40
2.0
 40
2.0
 40
2.0
 40
3.0
 40
3.0
 40
3.0
 40
4.0
 40
4.0
 40
4.0
 40
4.0
 10
875.618256538698
 20
-81.12198879150915
 30
0.0
 10
875.6182565384478
 20
-75.59913468725836
 30
0.0
 10
871.1411181048495
 20
-71.1219747222163
 30
0.0
 10
865.6182640006007
 20
-71.12197472246399
 30
0.0
 10
860.0954098963485
 20
-71.12197472271168
 30
0.0
 10
855.6182714631526
 20
-75.59913468815672
 30
0.0
 10
855.618271463403
 20
-81.12198879240752
 30
0.0
 10
855.61827146365
 20
-86.64482136481153
 30
0.0
 10
860.0954098972483
 20
-91.12198132985361
 30
0.0
 10
865.6182640014971
 20
-91.12198132960592
 30
0.0
 10
871.1411181057492
 20
-91.1219813293582
 30
0.0
 10
875.6182565389452
 20
-86.64482136391317
 30
0.0
 10
875.618256538698
 20
-81.12198879150915
 30
0.0
  0
SPLINE
  5
131
330
1F
100
AcDbEntity
  8
_U_5716_U_5C64_1
 62
     5
100
AcDbSpline
210
0.0
220
0.0
230
1.0
 70
    11
 71
     3
 72
    17
 73
    13
 74
     0
 42
0.0000000001
 43
0.0000000001
 12
1.0
 22
0.0
 32
0.0
 13
1.0
 23
0.0
 33
0.0
 40
0.0
 40
0.0
 40
0.0
 40
0.0
 40
1.0
 40
1.0
 40
1.0
 40
2.0
 40
2.0
 40
2.0
 40
3.0
 40
3.0
 40
3.0
 40
4.0
 40
4.0
 40
4.0
 40
4.0
 10
863.1182658666366
 20
-81.12198879207064
 30
0.0
 10
863.1182658665764
 20
-79.74125911712285
 30
0.0
 10
864.2375558578366
 20
-78.62199065760805
 30
0.0
 10
865.6182640009363
 20
-78.62199065754645
 30
0.0
 10
866.9989721440386
 20
-78.6219906574842
 30
0.0
 10
868.1182621353976
 20
-79.74125911689825
 30
0.0
 10
868.1182621354611
 20
-81.12198879184604
 30
0.0
 10
868.1182621355214
 20
-82.50269693494704
 30
0.0
 10
866.9989721442612
 20
-83.62198692630798
 30
0.0
 10
865.6182640011622
 20
-83.62198692637023
 30
0.0
 10
864.2375558580592
 20
-83.62198692643183
 30
0.0
 10
863.1182658667002
 20
-82.50269693517164
 30
0.0
 10
863.1182658666366
 20
-81.12198879207064
 30
0.0
  0
SPLINE
  5
132
330
1F
100
AcDbEntity
  8
_U_5716_U_5C64_1
 62
     7
100
AcDbSpline
210
0.0
220
0.0
230
1.0
 70
    11
 71
     3
 72
    17
 73
    13
 74
     0
 42
0.0000000001
 43
0.0000000001
 12
1.0
 22
0.0
 32
0.0
 13
1.0
 23
0.0
 33
0.0
 40
0.0
 40
0.0
 40
0.0
 40
0.0
 40
1.0
 40
1.0
 40
1.0
 40
2.0
 40
2.0
 40
2.0
 40
3.0
 40
3.0
 40
3.0
 40
4.0
 40
4.0
 40
4.0
 40
4.0
 10
759.6292278291454
 20
-5.724534838622849
 30
0.0
 10
754.1063737248934
 20
-5.724534838622849
 30
0.0
 10
749.6292137596517
 20
-10.20167327201962
 30
0.0
 10
749.6292137596517
 20
-15.72452737627042
 30
0.0
 10
749.6292137596517
 20
-21.24738148052122
 30
0.0
 10
754.1063737248934
 20
-25.72451991391799
 30
0.0
 10
759.6292278291454
 20
-25.72451991391799
 30
0.0
 10
765.1520604015494
 20
-25.72451991391799
 30
0.0
 10
769.6292203667911
 20
-21.24738148052122
 30
0.0
 10
769.6292203667911
 20
-15.72452737627042
 30
0.0
 10
769.6292203667911
 20
-10.20167327201962
 30
0.0
 10
765.1520604015494
 20
-5.724534838622849
 30
0.0
 10
759.6292278291454
 20
-5.724534838622849
 30
0.0
  0
SPLINE
  5
133
330
1F
100
AcDbEntity
  8
_U_5716_U_5C64_1
 62
     5
100
AcDbSpline
210
0.0
220
0.0
230
1.0
 70
    11
 71
     3
 72
    17
 73
    13
 74
     0
 42
0.0000000001
 43
0.0000000001
 12
1.0
 22
0.0
 32
0.0
 13
1.0
 23
0.0
 33
0.0
 40
0.0
 40
0.0
 40
0.0
 40
0.0
 40
1.0
 40
1.0
 40
1.0
 40
2.0
 40
2.0
 40
2.0
 40
3.0
 40
3.0
 40
3.0
 40
4.0
 40
4.0
 40
4.0
 40
4.0
 10
759.639261669745
 20
-20.72452364509421
 30
0.0
 10
756.8778238516987
 20
-20.72452364509421
 30
0.0
 10
754.6392438690763
 20
-18.48596519431921
 30
0.0
 10
754.6392438690763
 20
-15.72452737627042
 30
0.0
 10
754.6392438690763
 20
-12.96311109006841
 30
0.0
 10
756.8778238516987
 20
-10.72453110744664
 30
0.0
 10
759.639261669745
 20
-10.72453110744664
 30
0.0
 10
762.400677955947
 20
-10.72453110744664
 30
0.0
 10
764.63925793857
 20
-12.96311109006841
 30
0.0
 10
764.63925793857
 20
-15.72452737627042
 30
0.0
 10
764.63925793857
 20
-18.48596519431921
 30
0.0
 10
762.400677955947
 20
-20.72452364509421
 30
0.0
 10
759.639261669745
 20
-20.72452364509421
 30
0.0
  0
SPLINE
  5
134
330
1F
100
AcDbEntity
  8
_U_5716_U_5C64_1
 62
     7
100
AcDbSpline
210
0.0
220
0.0
230
1.0
 70
    11
 71
     3
 72
    17
 73
    13
 74
     0
 42
0.0000000001
 43
0.0000000001
 12
1.0
 22
0.0
 32
0.0
 13
1.0
 23
0.0
 33
0.0
 40
0.0
 40
0.0
 40
0.0
 40
0.0
 40
1.0
 40
1.0
 40
1.0
 40
2.0
 40
2.0
 40
2.0
 40
3.0
 40
3.0
 40
3.0
 40
4.0
 40
4.0
 40
4.0
 40
4.0
 10
704.8129600789188
 20
-62.8177903336201
 30
0.0
 10
699.2901059746667
 20
-62.8177903336201
 30
0.0
 10
694.8129460094251
 20
-67.29492876701687
 30
0.0
 10
694.8129460094251
 20
-72.81778287126767
 30
0.0
 10
694.8129460094251
 20
-78.34063697551846
 30
0.0
 10
699.2901059746667
 20
-82.81777540891524
 30
0.0
 10
704.8129600789188
 20
-82.81777540891524
 30
0.0
 10
710.3357926513228
 20
-82.81777540891524
 30
0.0
 10
714.8129526165644
 20
-78.34063697551846
 30
0.0
 10
714.8129526165644
 20
-72.81778287126767
 30
0.0
 10
714.8129526165644
 20
-67.29492876701687
 30
0.0
 10
710.3357926513228
 20
-62.8177903336201
 30
0.0
 10
704.8129600789188
 20
-62.8177903336201
 30
0.0
  0
SPLINE
  5
135
330
1F
100
AcDbEntity
  8
_U_5716_U_5C64_1
 62
     5
100
AcDbSpline
210
0.0
220
0.0
230
1.0
 70
    11
 71
     3
 72
    17
 73
    13
 74
     0
 42
0.0000000001
 43
0.0000000001
 12
1.0
 22
0.0
 32
0.0
 13
1.0
 23
0.0
 33
0.0
 40
0.0
 40
0.0
 40
0.0
 40
0.0
 40
1.0
 40
1.0
 40
1.0
 40
2.0
 40
2.0
 40
2.0
 40
3.0
 40
3.0
 40
3.0
 40
4.0
 40
4.0
 40
4.0
 40
4.0
 10
704.8229939195189
 20
-77.81777914009146
 30
0.0
 10
702.0615561014689
 20
-77.81777914009146
 30
0.0
 10
699.8229761188496
 20
-75.57922068931646
 30
0.0
 10
699.8229761188496
 20
-72.81778287126767
 30
0.0
 10
699.8229761188496
 20
-70.05636658506566
 30
0.0
 10
702.0615561014689
 20
-67.81778660244389
 30
0.0
 10
704.8229939195189
 20
-67.81778660244389
 30
0.0
 10
707.5844102057209
 20
-67.81778660244389
 30
0.0
 10
709.8229901883434
 20
-70.05636658506566
 30
0.0
 10
709.8229901883434
 20
-72.81778287126767
 30
0.0
 10
709.8229901883434
 20
-75.57922068931646
 30
0.0
 10
707.5844102057209
 20
-77.81777914009146
 30
0.0
 10
704.8229939195189
 20
-77.81777914009146
 30
0.0
  0
SPLINE
  5
136
330
1F
100
AcDbEntity
  8
_U_5716_U_5C64_1
 62
     7
100
AcDbSpline
210
0.0
220
0.0
230
1.0
 70
    11
 71
     3
 72
    17
 73
    13
 74
     0
 42
0.0000000001
 43
0.0000000001
 12
1.0
 22
0.0
 32
0.0
 13
1.0
 23
0.0
 33
0.0
 40
0.0
 40
0.0
 40
0.0
 40
0.0
 40
1.0
 40
1.0
 40
1.0
 40
2.0
 40
2.0
 40
2.0
 40
3.0
 40
3.0
 40
3.0
 40
4.0
 40
4.0
 40
4.0
 40
4.0
 10
738.4556447348604
 20
-16.70860409848737
 30
0.0
 10
732.9327906306115
 20
-16.70860409848737
 30
0.0
 10
728.4556306653667
 20
-21.18574253188415
 30
0.0
 10
728.4556306653667
 20
-26.70859663613495
 30
0.0
 10
728.4556306653667
 20
-32.23145074038574
 30
0.0
 10
732.9327906306115
 20
-36.70858917378219
 30
0.0
 10
738.4556447348604
 20
-36.70858917378219
 30
0.0
 10
743.9784773072644
 20
-36.70858917378219
 30
0.0
 10
748.4556372725099
 20
-32.23145074038574
 30
0.0
 10
748.4556372725099
 20
-26.70859663613495
 30
0.0
 10
748.4556372725099
 20
-21.18574253188415
 30
0.0
 10
743.9784773072644
 20
-16.70860409848737
 30
0.0
 10
738.4556447348604
 20
-16.70860409848737
 30
0.0
  0
SPLINE
  5
137
330
1F
100
AcDbEntity
  8
_U_5716_U_5C64_1
 62
     5
100
AcDbSpline
210
0.0
220
0.0
230
1.0
 70
    11
 71
     3
 72
    17
 73
    13
 74
     0
 42
0.0000000001
 43
0.0000000001
 12
1.0
 22
0.0
 32
0.0
 13
1.0
 23
0.0
 33
0.0
 40
0.0
 40
0.0
 40
0.0
 40
0.0
 40
1.0
 40
1.0
 40
1.0
 40
2.0
 40
2.0
 40
2.0
 40
3.0
 40
3.0
 40
3.0
 40
4.0
 40
4.0
 40
4.0
 40
4.0
 10
738.4656785754605
 20
-31.70859290495873
 30
0.0
 10
735.7042407574137
 20
-31.70859290495873
 30
0.0
 10
733.4656607747912
 20
-29.47003445418374
 30
0.0
 10
733.4656607747912
 20
-26.70859663613495
 30
0.0
 10
733.4656607747912
 20
-23.94718034993294
 30
0.0
 10
735.7042407574137
 20
-21.70860036731116
 30
0.0
 10
738.4656785754605
 20
-21.70860036731116
 30
0.0
 10
741.2270948616625
 20
-21.70860036731116
 30
0.0
 10
743.465674844285
 20
-23.94718034993294
 30
0.0
 10
743.465674844285
 20
-26.70859663613495
 30
0.0
 10
743.465674844285
 20
-29.47003445418374
 30
0.0
 10
741.2270948616625
 20
-31.70859290495873
 30
0.0
 10
738.4656785754605
 20
-31.70859290495873
 30
0.0
  0
SPLINE
  5
138
330
1F
100
AcDbEntity
  8
_U_5716_U_5C64_1
 62
     7
100
AcDbSpline
210
0.0
220
0.0
230
1.0
 70
    11
 71
     3
 72
    17
 73
    13
 74
     0
 42
0.0000000001
 43
0.0000000001
 12
1.0
 22
0.0
 32
0.0
 13
1.0
 23
0.0
 33
0.0
 40
0.0
 40
0.0
 40
0.0
 40
0.0
 40
1.0
 40
1.0
 40
1.0
 40
2.0
 40
2.0
 40
2.0
 40
3.0
 40
3.0
 40
3.0
 40
4.0
 40
4.0
 40
4.0
 40
4.0
 10
686.1444549527102
 20
-74.30832092758652
 30
0.0
 10
680.6216008484613
 20
-74.30832092758652
 30
0.0
 10
676.1444408832165
 20
-78.7854593609833
 30
0.0
 10
676.1444408832165
 20
-84.3083134652341
 30
0.0
 10
676.1444408832165
 20
-89.83116756948489
 30
0.0
 10
680.6216008484613
 20
-94.30830600288166
 30
0.0
 10
686.1444549527102
 20
-94.30830600288166
 30
0.0
 10
691.6672875251143
 20
-94.30830600288166
 30
0.0
 10
696.1444474903597
 20
-89.83116756948489
 30
0.0
 10
696.1444474903597
 20
-84.3083134652341
 30
0.0
 10
696.1444474903597
 20
-78.7854593609833
 30
0.0
 10
691.6672875251143
 20
-74.30832092758652
 30
0.0
 10
686.1444549527102
 20
-74.30832092758652
 30
0.0
  0
SPLINE
  5
139
330
1F
100
AcDbEntity
  8
_U_5716_U_5C64_1
 62
     5
100
AcDbSpline
210
0.0
220
0.0
230
1.0
 70
    11
 71
     3
 72
    17
 73
    13
 74
     0
 42
0.0000000001
 43
0.0000000001
 12
1.0
 22
0.0
 32
0.0
 13
1.0
 23
0.0
 33
0.0
 40
0.0
 40
0.0
 40
0.0
 40
0.0
 40
1.0
 40
1.0
 40
1.0
 40
2.0
 40
2.0
 40
2.0
 40
3.0
 40
3.0
 40
3.0
 40
4.0
 40
4.0
 40
4.0
 40
4.0
 10
686.1544887933136
 20
-89.30830973405789
 30
0.0
 10
683.3930509752635
 20
-89.30830973405789
 30
0.0
 10
681.1544709926411
 20
-87.06975128328288
 30
0.0
 10
681.1544709926411
 20
-84.3083134652341
 30
0.0
 10
681.1544709926411
 20
-81.54689717903209
 30
0.0
 10
683.3930509752635
 20
-79.30831719641031
 30
0.0
 10
686.1544887933136
 20
-79.30831719641031
 30
0.0
 10
688.9159050795156
 20
-79.30831719641031
 30
0.0
 10
691.1544850621348
 20
-81.54689717903209
 30
0.0
 10
691.1544850621348
 20
-84.3083134652341
 30
0.0
 10
691.1544850621348
 20
-87.06975128328288
 30
0.0
 10
688.9159050795156
 20
-89.30830973405789
 30
0.0
 10
686.1544887933136
 20
-89.30830973405789
 30
0.0
  0
SPLINE
  5
13A
330
1F
100
AcDbEntity
  8
_U_5716_U_5C64_1
 62
     7
100
AcDbSpline
210
0.0
220
0.0
230
1.0
 70
    11
 71
     3
 72
    17
 73
    13
 74
     0
 42
0.0000000001
 43
0.0000000001
 12
1.0
 22
0.0
 32
0.0
 13
1.0
 23
0.0
 33
0.0
 40
0.0
 40
0.0
 40
0.0
 40
0.0
 40
1.0
 40
1.0
 40
1.0
 40
2.0
 40
2.0
 40
2.0
 40
3.0
 40
3.0
 40
3.0
 40
4.0
 40
4.0
 40
4.0
 40
4.0
 10
660.4767054350112
 20
-7.461436248609359
 30
0.0
 10
654.9538513307624
 20
-7.461436248609359
 30
0.0
 10
650.4766913655176
 20
-11.93857468200613
 30
0.0
 10
650.4766913655176
 20
-17.46142878625693
 30
0.0
 10
650.4766913655176
 20
-22.98428289050773
 30
0.0
 10
654.9538513307624
 20
-27.4614213239045
 30
0.0
 10
660.4767054350112
 20
-27.4614213239045
 30
0.0
 10
665.9995380074153
 20
-27.4614213239045
 30
0.0
 10
670.4766979726608
 20
-22.98428289050773
 30
0.0
 10
670.4766979726608
 20
-17.46142878625693
 30
0.0
 10
670.4766979726608
 20
-11.93857468200613
 30
0.0
 10
665.9995380074153
 20
-7.461436248609359
 30
0.0
 10
660.4767054350112
 20
-7.461436248609359
 30
0.0
  0
SPLINE
  5
13B
330
1F
100
AcDbEntity
  8
_U_5716_U_5C64_1
 62
     5
100
AcDbSpline
210
0.0
220
0.0
230
1.0
 70
    11
 71
     3
 72
    17
 73
    13
 74
     0
 42
0.0000000001
 43
0.0000000001
 12
1.0
 22
0.0
 32
0.0
 13
1.0
 23
0.0
 33
0.0
 40
0.0
 40
0.0
 40
0.0
 40
0.0
 40
1.0
 40
1.0
 40
1.0
 40
2.0
 40
2.0
 40
2.0
 40
3.0
 40
3.0
 40
3.0
 40
4.0
 40
4.0
 40
4.0
 40
4.0
 10
660.4867392756114
 20
-22.46142505508072
 30
0.0
 10
657.7253014575646
 20
-22.46142505508072
 30
0.0
 10
655.4867214749421
 20
-20.22286660430572
 30
0.0
 10
655.4867214749421
 20
-17.46142878625693
 30
0.0
 10
655.4867214749421
 20
-14.70001250005492
 30
0.0
 10
657.7253014575646
 20
-12.46143251743315
 30
0.0
 10
660.4867392756114
 20
-12.46143251743315
 30
0.0
 10
663.2481555618134
 20
-12.46143251743315
 30
0.0
 10
665.4867355444359
 20
-14.70001250005492
 30
0.0
 10
665.4867355444359
 20
-17.46142878625693
 30
0.0
 10
665.4867355444359
 20
-20.22286660430572
 30
0.0
 10
663.2481555618134
 20
-22.46142505508072
 30
0.0
 10
660.4867392756114
 20
-22.46142505508072
 30
0.0
  0
SPLINE
  5
13C
330
1F
100
AcDbEntity
  8
_U_5716_U_5C64_1
 62
     7
100
AcDbSpline
210
0.0
220
0.0
230
1.0
 70
    11
 71
     3
 72
    17
 73
    13
 74
     0
 42
0.0000000001
 43
0.0000000001
 12
1.0
 22
0.0
 32
0.0
 13
1.0
 23
0.0
 33
0.0
 40
0.0
 40
0.0
 40
0.0
 40
0.0
 40
1.0
 40
1.0
 40
1.0
 40
2.0
 40
2.0
 40
2.0
 40
3.0
 40
3.0
 40
3.0
 40
4.0
 40
4.0
 40
4.0
 40
4.0
 10
641.8082003088059
 20
-18.95196684257579
 30
0.0
 10
636.2853462045538
 20
-18.95196684257579
 30
0.0
 10
631.8081862393121
 20
-23.42910527597256
 30
0.0
 10
631.8081862393121
 20
-28.95195938022336
 30
0.0
 10
631.8081862393121
 20
-34.47481348447415
 30
0.0
 10
636.2853462045538
 20
-38.95195191787093
 30
0.0
 10
641.8082003088059
 20
-38.95195191787093
 30
0.0
 10
647.3310328812099
 20
-38.95195191787093
 30
0.0
 10
651.8081928464521
 20
-34.47481348447415
 30
0.0
 10
651.8081928464521
 20
-28.95195938022336
 30
0.0
 10
651.8081928464521
 20
-23.42910527597256
 30
0.0
 10
647.3310328812099
 20
-18.95196684257579
 30
0.0
 10
641.8082003088059
 20
-18.95196684257579
 30
0.0
  0
SPLINE
  5
13D
330
1F
100
AcDbEntity
  8
_U_5716_U_5C64_1
 62
     5
100
AcDbSpline
210
0.0
220
0.0
230
1.0
 70
    11
 71
     3
 72
    17
 73
    13
 74
     0
 42
0.0000000001
 43
0.0000000001
 12
1.0
 22
0.0
 32
0.0
 13
1.0
 23
0.0
 33
0.0
 40
0.0
 40
0.0
 40
0.0
 40
0.0
 40
1.0
 40
1.0
 40
1.0
 40
2.0
 40
2.0
 40
2.0
 40
3.0
 40
3.0
 40
3.0
 40
4.0
 40
4.0
 40
4.0
 40
4.0
 10
641.8182341494061
 20
-33.95195564904714
 30
0.0
 10
639.0567963313559
 20
-33.95195564904714
 30
0.0
 10
636.8182163487368
 20
-31.71339719827214
 30
0.0
 10
636.8182163487368
 20
-28.95195938022336
 30
0.0
 10
636.8182163487368
 20
-26.19054309402135
 30
0.0
 10
639.0567963313559
 20
-23.95196311139957
 30
0.0
 10
641.8182341494061
 20
-23.95196311139957
 30
0.0
 10
644.5796504356081
 20
-23.95196311139957
 30
0.0
 10
646.8182304182304
 20
-26.19054309402135
 30
0.0
 10
646.8182304182304
 20
-28.95195938022336
 30
0.0
 10
646.8182304182304
 20
-31.71339719827214
 30
0.0
 10
644.5796504356081
 20
-33.95195564904714
 30
0.0
 10
641.8182341494061
 20
-33.95195564904714
 30
0.0
  0
SPLINE
  5
13E
330
1F
100
AcDbEntity
  8
_U_5716_U_5C64_1
 62
     7
100
AcDbSpline
210
0.0
220
0.0
230
1.0
 70
    11
 71
     3
 72
    17
 73
    13
 74
     0
 42
0.0000000001
 43
0.0000000001
 12
1.0
 22
0.0
 32
0.0
 13
1.0
 23
0.0
 33
0.0
 40
0.0
 40
0.0
 40
0.0
 40
0.0
 40
1.0
 40
1.0
 40
1.0
 40
2.0
 40
2.0
 40
2.0
 40
3.0
 40
3.0
 40
3.0
 40
4.0
 40
4.0
 40
4.0
 40
4.0
 10
606.0083139454002
 20
-63.19756904717533
 30
0.0
 10
600.4854598411521
 20
-63.19756904717533
 30
0.0
 10
596.0082998759066
 20
-67.67470748057211
 30
0.0
 10
596.0082998759066
 20
-73.1975615848229
 30
0.0
 10
596.0082998759066
 20
-78.7204156890737
 30
0.0
 10
600.4854598411521
 20
-83.19755412247048
 30
0.0
 10
606.0083139454002
 20
-83.19755412247048
 30
0.0
 10
611.5311465178042
 20
-83.19755412247048
 30
0.0
 10
616.0083064830498
 20
-78.7204156890737
 30
0.0
 10
616.0083064830498
 20
-73.1975615848229
 30
0.0
 10
616.0083064830498
 20
-67.67470748057211
 30
0.0
 10
611.5311465178042
 20
-63.19756904717533
 30
0.0
 10
606.0083139454002
 20
-63.19756904717533
 30
0.0
  0
SPLINE
  5
13F
330
1F
100
AcDbEntity
  8
_U_5716_U_5C64_1
 62
     5
100
AcDbSpline
210
0.0
220
0.0
230
1.0
 70
    11
 71
     3
 72
    17
 73
    13
 74
     0
 42
0.0000000001
 43
0.0000000001
 12
1.0
 22
0.0
 32
0.0
 13
1.0
 23
0.0
 33
0.0
 40
0.0
 40
0.0
 40
0.0
 40
0.0
 40
1.0
 40
1.0
 40
1.0
 40
2.0
 40
2.0
 40
2.0
 40
3.0
 40
3.0
 40
3.0
 40
4.0
 40
4.0
 40
4.0
 40
4.0
 10
606.0183477860004
 20
-78.19755785364669
 30
0.0
 10
603.2569099679536
 20
-78.19755785364669
 30
0.0
 10
601.0183299853312
 20
-75.9589994028717
 30
0.0
 10
601.0183299853312
 20
-73.1975615848229
 30
0.0
 10
601.0183299853312
 20
-70.43614529862089
 30
0.0
 10
603.2569099679536
 20
-68.19756531599911
 30
0.0
 10
606.0183477860004
 20
-68.19756531599911
 30
0.0
 10
608.7797640722024
 20
-68.19756531599911
 30
0.0
 10
611.0183440548249
 20
-70.43614529862089
 30
0.0
 10
611.0183440548249
 20
-73.1975615848229
 30
0.0
 10
611.0183440548249
 20
-75.9589994028717
 30
0.0
 10
608.7797640722024
 20
-78.19755785364669
 30
0.0
 10
606.0183477860004
 20
-78.19755785364669
 30
0.0
  0
SPLINE
  5
140
330
1F
100
AcDbEntity
  8
_U_5716_U_5C64_1
 62
     7
100
AcDbSpline
210
0.0
220
0.0
230
1.0
 70
    11
 71
     3
 72
    17
 73
    13
 74
     0
 42
0.0000000001
 43
0.0000000001
 12
1.0
 22
0.0
 32
0.0
 13
1.0
 23
0.0
 33
0.0
 40
0.0
 40
0.0
 40
0.0
 40
0.0
 40
1.0
 40
1.0
 40
1.0
 40
2.0
 40
2.0
 40
2.0
 40
3.0
 40
3.0
 40
3.0
 40
4.0
 40
4.0
 40
4.0
 40
4.0
 10
587.3398088191956
 20
-74.68809964114175
 30
0.0
 10
581.8169547149434
 20
-74.68809964114175
 30
0.0
 10
577.3397947497018
 20
-79.16523807453852
 30
0.0
 10
577.3397947497018
 20
-84.68809217878932
 30
0.0
 10
577.3397947497018
 20
-90.21094628304012
 30
0.0
 10
581.8169547149434
 20
-94.68808471643689
 30
0.0
 10
587.3398088191956
 20
-94.68808471643689
 30
0.0
 10
592.8626413915996
 20
-94.68808471643689
 30
0.0
 10
597.3398013568412
 20
-90.21094628304012
 30
0.0
 10
597.3398013568412
 20
-84.68809217878932
 30
0.0
 10
597.3398013568412
 20
-79.16523807453852
 30
0.0
 10
592.8626413915996
 20
-74.68809964114175
 30
0.0
 10
587.3398088191956
 20
-74.68809964114175
 30
0.0
  0
SPLINE
  5
141
330
1F
100
AcDbEntity
  8
_U_5716_U_5C64_1
 62
     5
100
AcDbSpline
210
0.0
220
0.0
230
1.0
 70
    11
 71
     3
 72
    17
 73
    13
 74
     0
 42
0.0000000001
 43
0.0000000001
 12
1.0
 22
0.0
 32
0.0
 13
1.0
 23
0.0
 33
0.0
 40
0.0
 40
0.0
 40
0.0
 40
0.0
 40
1.0
 40
1.0
 40
1.0
 40
2.0
 40
2.0
 40
2.0
 40
3.0
 40
3.0
 40
3.0
 40
4.0
 40
4.0
 40
4.0
 40
4.0
 10
587.3498426597951
 20
-89.68808844761311
 30
0.0
 10
584.5884048417449
 20
-89.68808844761311
 30
0.0
 10
582.3498248591264
 20
-87.44952999683811
 30
0.0
 10
582.3498248591264
 20
-84.68809217878932
 30
0.0
 10
582.3498248591264
 20
-81.92667589258731
 30
0.0
 10
584.5884048417449
 20
-79.68809590996554
 30
0.0
 10
587.3498426597951
 20
-79.68809590996554
 30
0.0
 10
590.1112589459971
 20
-79.68809590996554
 30
0.0
 10
592.3498389286201
 20
-81.92667589258731
 30
0.0
 10
592.3498389286201
 20
-84.68809217878932
 30
0.0
 10
592.3498389286201
 20
-87.44952999683811
 30
0.0
 10
590.1112589459971
 20
-89.68808844761311
 30
0.0
 10
587.3498426597951
 20
-89.68808844761311
 30
0.0
  0
ENDSEC
  0
SECTION
  2
OBJECTS
  0
DICTIONARY
  5
C
330
0
100
AcDbDictionary
  3
ACAD_GROUP
350
D
  3
ACAD_LAYOUT
350
1A
  3
ACAD_MATERIAL
350
3B
  3
ACAD_MLEADERSTYLE
350
145
  3
ACAD_MLINESTYLE
350
17
  3
ACAD_PLOTSETTINGS
350
19
  3
ACAD_VISUALSTYLE
350
2A
  3
ACDBVARIABLEDICTIONARY
350
143
1001
ACAD
1000
TREAT_AS_HARD
1070
     0
  0
DICTIONARY
  5
D
102
{ACAD_REACTORS
330
C
102
}
330
C
100
AcDbDictionary
1001
ACAD
1000
TREAT_AS_HARD
1070
     0
  0
DICTIONARY
  5
1A
102
{ACAD_REACTORS
330
C
102
}
330
C
100
AcDbDictionary
1001
ACAD
1000
TREAT_AS_HARD
1070
     0
  0
DICTIONARY
  5
3B
102
{ACAD_REACTORS
330
C
102
}
330
C
100
AcDbDictionary
  3
BYBLOCK
350
3D
  3
BYLAYER
350
3C
  3
GLOBAL
350
3E
1001
ACAD
1000
TREAT_AS_HARD
1070
     0
  0
DICTIONARY
  5
145
102
{ACAD_REACTORS
330
C
102
}
330
C
100
AcDbDictionary
1001
ACAD
1000
TREAT_AS_HARD
1070
     0
  0
DICTIONARY
  5
17
102
{ACAD_REACTORS
330
C
102
}
330
C
100
AcDbDictionary
  3
STANDARD
350
18
1001
ACAD
1000
TREAT_AS_HARD
1070
     0
  0
DICTIONARY
  5
19
102
{ACAD_REACTORS
330
C
102
}
330
C
100
AcDbDictionary
1001
ACAD
1000
TREAT_AS_HARD
1070
     0
  0
DICTIONARY
  5
2A
102
{ACAD_REACTORS
330
C
102
}
330
C
100
AcDbDictionary
  3
2DWIREFRAME
350
2F
  3
3D_HIDDEN
350
31
  3
3DWIREFRAME
350
30
  3
BASIC
350
32
  3
BRIGHTEN
350
36
  3
COLORCHANGE
350
3A
  3
CONCEPTUAL
350
34
  3
DIM
350
35
  3
FACEPATTERN
350
39
  3
FLAT
350
2B
  3
FLATWITHEDGES
350
2C
  3
GOURAUD
350
2D
  3
GOURAUDWITHEDGES
350
2E
  3
LINEPATTERN
350
38
  3
REALISTIC
350
33
  3
THICKEN
350
37
1001
ACAD
1000
TREAT_AS_HARD
1070
     0
  0
DICTIONARY
  5
143
102
{ACAD_REACTORS
330
C
102
}
330
C
100
AcDbDictionary
  3
DIMASSOC
350
146
  3
HIDETEXT
350
147
1001
ACAD
1000
TREAT_AS_HARD
1070
     0
  0
MATERIAL
  5
3D
102
{ACAD_REACTORS
330
3B
102
}
102
{ACAD_XDICTIONARY
360
14A
102
}
330
3B
100
AcDbMaterial
  1
ByBlock
  0
MATERIAL
  5
3C
102
{ACAD_REACTORS
330
3B
102
}
102
{ACAD_XDICTIONARY
360
148
102
}
330
3B
100
AcDbMaterial
  1
ByLayer
  0
MATERIAL
  5
3E
102
{ACAD_REACTORS
330
3B
102
}
102
{ACAD_XDICTIONARY
360
14C
102
}
330
3B
100
AcDbMaterial
  1
Global
  0
MLINESTYLE
  5
18
102
{ACAD_REACTORS
330
17
102
}
330
17
100
AcDbMlineStyle
  2
Standard
 70
     0
  3

 62
   256
 51
90.0
 52
90.0
 71
     2
 49
0.5
 62
   256
  6
BYLAYER
 49
-0.5
 62
   256
  6
BYLAYER
  0
ACAD_PROXY_OBJECT
  5
2F
102
{ACAD_REACTORS
330
2A
102
}
330
2A
100
AcDbZombieObject
 90
      499
 91
      501
 93
      436
310
42CC9915DA5C99599C985B595049028333333333333E3BF0000000000000FB0107901411070040501600405405064090741402480A0340
1001
ACAD
1000
AcDbSavedByObjectVersion
1070
     0
  0
ACAD_PROXY_OBJECT
  5
31
102
{ACAD_REACTORS
330
2A
102
}
330
2A
100
AcDbZombieObject
 90
      499
 91
      501
 93
      500
310
424CD108121A5919195B90640502408333333333333E3BF0000000000000FB01079024090700405020000000000001110200405405064090740C02480A0340
1001
ACAD
1000
AcDbSavedByObjectVersion
1070
     0
  0
ACAD_PROXY_OBJECT
  5
30
102
{ACAD_REACTORS
330
2A
102
}
330
2A
100
AcDbZombieObject
 90
      499
 91
      501
 93
      436
310
42CCD915DA5C99599C985B595059028333333333333E3BF0000000000000FB0107901411070040501600405405064090741402480A0340
1001
ACAD
1000
AcDbSavedByObjectVersion
1070
     0
  0
ACAD_PROXY_OBJECT
  5
32
102
{ACAD_REACTORS
330
2A
102
}
330
2A
100
AcDbZombieObject
 90
      499
 91
      501
 93
      388
310
4150985CDA58D07406404333333333333E3BF0000000000000FB0107A41107004050150841D405064090741402480A0350
1001
ACAD
1000
AcDbSavedByObjectVersion
1070
     0
  0
ACAD_PROXY_OBJECT
  5
36
102
{ACAD_REACTORS
330
2A
102
}
330
2A
100
AcDbZombieObject
 90
      499
 91
      501
 93
      428
310
42109C9A59DA1D195B90C409028333333333333E3BF0000000000000FB010790141107004050150841D405064090741402480A029950
1001
ACAD
1000
AcDbSavedByObjectVersion
1070
     0
  0
ACAD_PROXY_OBJECT
  5
3A
102
{ACAD_REACTORS
330
2A
102
}
330
2A
100
AcDbZombieObject
 90
      499
 91
      501
 93
      452
310
42D0DBDB1BDC90DA185B99D95104090240C333333333333E3BF0000000000000FB0108901411070040501508421405064090741402480A0350
1001
ACAD
1000
AcDbSavedByObjectVersion
1070
     0
  0
ACAD_PROXY_OBJECT
  5
34
102
{ACAD_REACTORS
330
2A
102
}
330
2A
100
AcDbZombieObject
 90
      499
 91
      501
 93
      500
310
4290DBDB98D95C1D1D585B10940D028333333333333E3BF0000000000000FB0107902409070040501000000000000111010841D405064090740C02480A0340
1001
ACAD
1000
AcDbSavedByObjectVersion
1070
     0
  0
ACAD_PROXY_OBJECT
  5
35
102
{ACAD_REACTORS
330
2A
102
}
330
2A
100
AcDbZombieObject
 90
      499
 91
      501
 93
      412
310
40D11A5B50B409028333333333333E3BF0000000000000FB010790141107004050150841D405064090741402480A02677FFFFFD0
1001
ACAD
1000
AcDbSavedByObjectVersion
1070
     0
  0
ACAD_PROXY_OBJECT
  5
39
102
{ACAD_REACTORS
330
2A
102
}
330
2A
100
AcDbZombieObject
 90
      499
 91
      501
 93
      444
310
42D19858D95C185D1D195C9B90F409028333333333333E3BF0000000000000FB010790141107004050150841D405064090741402480A0350
1001
ACAD
1000
AcDbSavedByObjectVersion
1070
     0
  0
ACAD_PROXY_OBJECT
  5
2B
102
{ACAD_REACTORS
330
2A
102
}
330
2A
100
AcDbZombieObject
 90
      499
 91
      501
 93
      388
310
41119B185D240901404333333333333E3BF0000000000000F9010740A41107004050150841D405064090741402480A1B50
1001
ACAD
1000
AcDbSavedByObjectVersion
1070
     0
  0
ACAD_PROXY_OBJECT
  5
2C
102
{ACAD_REACTORS
330
2A
102
}
330
2A
100
AcDbZombieObject
 90
      499
 91
      501
 93
      476
310
43519B185D15DA5D1A115919D95CD0140901404333333333333E3BF0000000000000F9010740901411070040501600405405064090741402480A1B50
1001
ACAD
1000
AcDbSavedByObjectVersion
1070
     0
  0
ACAD_PROXY_OBJECT
  5
2D
102
{ACAD_REACTORS
330
2A
102
}
330
2A
100
AcDbZombieObject
 90
      499
 91
      501
 93
      412
310
41D1DBDD5C985D5910240902404333333333333E3BF0000000000000F9010740A411070040501641D405064090741402480A1B50
1001
ACAD
1000
AcDbSavedByObjectVersion
1070
     0
  0
ACAD_PROXY_OBJECT
  5
2E
102
{ACAD_REACTORS
330
2A
102
}
330
2A
100
AcDbZombieObject
 90
      499
 91
      501
 93
      500
310
4411DBDD5C985D5915DA5D1A115919D95CD0340902404333333333333E3BF0000000000000F9010740901411070040501600405405064090741402480A1B50
1001
ACAD
1000
AcDbSavedByObjectVersion
1070
     0
  0
ACAD_PROXY_OBJECT
  5
38
102
{ACAD_REACTORS
330
2A
102
}
330
2A
100
AcDbZombieObject
 90
      499
 91
      501
 93
      444
310
42D31A5B995C185D1D195C9B90E409028333333333333E3BF0000000000000FB010790141107004050750841D405064090741402483A0350
1001
ACAD
1000
AcDbSavedByObjectVersion
1070
     0
  0
ACAD_PROXY_OBJECT
  5
33
102
{ACAD_REACTORS
330
2A
102
}
330
2A
100
AcDbZombieObject
 90
      499
 91
      501
 93
      420
310
425499585B1A5CDD1A58D08409028333333333333E3BF0000000000000FB01079019070040501508421405064090741402480A1B40
1001
ACAD
1000
AcDbSavedByObjectVersion
1070
     0
  0
ACAD_PROXY_OBJECT
  5
37
102
{ACAD_REACTORS
330
2A
102
}
330
2A
100
AcDbZombieObject
 90
      499
 91
      501
 93
      412
310
41D51A1A58DAD95B90D409028333333333333E3BF0000000000000FB010790141107004050150C41D405064090741402480A0350
1001
ACAD
1000
AcDbSavedByObjectVersion
1070
     0
  0
DICTIONARYVAR
  5
146
102
{ACAD_REACTORS
330
143
102
}
330
143
100
DictionaryVariables
280
     0
  1
2
  0
DICTIONARYVAR
  5
147
102
{ACAD_REACTORS
330
143
102
}
330
143
100
DictionaryVariables
280
     0
  1
1
  0
DICTIONARY
  5
14A
330
3D
100
AcDbDictionary
  3
ACAD_XREC_ROUNDTRIP
360
14B
1001
ACAD
1000
TREAT_AS_HARD
1070
     1
  0
DICTIONARY
  5
148
330
3C
100
AcDbDictionary
  3
ACAD_XREC_ROUNDTRIP
360
149
1001
ACAD
1000
TREAT_AS_HARD
1070
     1
  0
DICTIONARY
  5
14C
330
3E
100
AcDbDictionary
  3
ACAD_XREC_ROUNDTRIP
360
14D
1001
ACAD
1000
TREAT_AS_HARD
1070
     1
  0
XRECORD
  5
14B
102
{ACAD_REACTORS
330
14A
102
}
330
14A
100
AcDbXrecord
102
MATERIAL
148
0.0
149
0.0
149
0.0
 93
        0
 94
      127
282
     0
 72
     1
 77
     1
171
     1
175
     1
179
     1
273
     0
  0
XRECORD
  5
149
102
{ACAD_REACTORS
330
148
102
}
330
148
100
AcDbXrecord
102
MATERIAL
148
0.0
149
0.0
149
0.0
 93
        0
 94
      127
282
     0
 72
     1
 77
     1
171
     1
175
     1
179
     1
273
     0
  0
XRECORD
  5
14D
102
{ACAD_REACTORS
330
14C
102
}
330
14C
100
AcDbXrecord
102
MATERIAL
148
0.0
149
0.0
149
0.0
 93
        0
 94
      127
282
     0
 72
     1
 77
     1
171
     1
175
     1
179
     1
273
     0
  0
ENDSEC
  0
EOF
