  0
SECTION
  2
HEADER
  9
$ACADVER
  1
AC1012
  9
$DWGCODEPAGE
  3
ansi_936
  9
$INSBASE
 10
0.0
 20
0.0
 30
0.0
  9
$EXTMIN
 10
1.000000000000000E+20
 20
1.000000000000000E+20
 30
1.000000000000000E+20
  9
$EXTMAX
 10
-1.000000000000000E+20
 20
-1.000000000000000E+20
 30
-1.000000000000000E+20
  9
$LIMMIN
 10
0.0
 20
0.0
  9
$LIMMAX
 10
12.0
 20
9.0
  9
$ORTHOMODE
 70
     0
  9
$REGENMODE
 70
     1
  9
$FILLMODE
 70
     1
  9
$QTEXTMODE
 70
     0
  9
$MIRRTEXT
 70
     1
  9
$DRAGMODE
 70
     2
  9
$LTSCALE
 40
1.0
  9
$OSMODE
 70
    37
  9
$ATTMODE
 70
     1
  9
$TEXTSIZE
 40
0.2
  9
$TRACEWID
 40
0.05
  9
$TEXTSTYLE
  7
STANDARD
  9
$CLAYER
  8
0
  9
$CELTYPE
  6
BYLAYER
  9
$CECOLOR
 62
   256
  9
$CELTSCALE
 40
1.0
  9
$DELOBJ
 70
     1
  9
$DISPSILH
 70
     0
  9
$DIMSCALE
 40
1.0
  9
$DIMASZ
 40
0.18
  9
$DIMEXO
 40
0.0625
  9
$DIMDLI
 40
0.38
  9
$DIMRND
 40
0.0
  9
$DIMDLE
 40
0.0
  9
$DIMEXE
 40
0.18
  9
$DIMTP
 40
0.0
  9
$DIMTM
 40
0.0
  9
$DIMTXT
 40
0.18
  9
$DIMCEN
 40
0.09
  9
$DIMTSZ
 40
0.0
  9
$DIMTOL
 70
     0
  9
$DIMLIM
 70
     0
  9
$DIMTIH
 70
     1
  9
$DIMTOH
 70
     1
  9
$DIMSE1
 70
     0
  9
$DIMSE2
 70
     0
  9
$DIMTAD
 70
     0
  9
$DIMZIN
 70
     0
  9
$DIMBLK
  1

  9
$DIMASO
 70
     1
  9
$DIMSHO
 70
     1
  9
$DIMPOST
  1

  9
$DIMAPOST
  1

  9
$DIMALT
 70
     0
  9
$DIMALTD
 70
     2
  9
$DIMALTF
 40
25.4
  9
$DIMLFAC
 40
1.0
  9
$DIMTOFL
 70
     0
  9
$DIMTVP
 40
0.0
  9
$DIMTIX
 70
     0
  9
$DIMSOXD
 70
     0
  9
$DIMSAH
 70
     0
  9
$DIMBLK1
  1

  9
$DIMBLK2
  1

  9
$DIMSTYLE
  2
STANDARD
  9
$DIMCLRD
 70
     0
  9
$DIMCLRE
 70
     0
  9
$DIMCLRT
 70
     0
  9
$DIMTFAC
 40
1.0
  9
$DIMGAP
 40
0.09
  9
$DIMJUST
 70
     0
  9
$DIMSD1
 70
     0
  9
$DIMSD2
 70
     0
  9
$DIMTOLJ
 70
     1
  9
$DIMTZIN
 70
     0
  9
$DIMALTZ
 70
     0
  9
$DIMALTTZ
 70
     0
  9
$DIMFIT
 70
     3
  9
$DIMUPT
 70
     0
  9
$DIMUNIT
 70
     2
  9
$DIMDEC
 70
     4
  9
$DIMTDEC
 70
     4
  9
$DIMALTU
 70
     2
  9
$DIMALTTD
 70
     2
  9
$DIMTXSTY
  7
STANDARD
  9
$DIMAUNIT
 70
     0
  9
$LUNITS
 70
     2
  9
$LUPREC
 70
     4
  9
$SKETCHINC
 40
0.1
  9
$FILLETRAD
 40
0.5
  9
$AUNITS
 70
     0
  9
$AUPREC
 70
     0
  9
$MENU
  1
.
  9
$ELEVATION
 40
0.0
  9
$PELEVATION
 40
0.0
  9
$THICKNESS
 40
0.0
  9
$LIMCHECK
 70
     0
  9
$CHAMFERA
 40
0.5
  9
$CHAMFERB
 40
0.5
  9
$CHAMFERC
 40
1.0
  9
$CHAMFERD
 40
0.0
  9
$SKPOLY
 70
     0
  9
$TDCREATE
 40
2458022.52547456
  9
$TDUPDATE
 40
2458022.52547463
  9
$TDINDWG
 40
0.0000000116
  9
$TDUSRTIMER
 40
0.0000000116
  9
$USRTIMER
 70
     1
  9
$ANGBASE
 50
0.0
  9
$ANGDIR
 70
     0
  9
$PDMODE
 70
     0
  9
$PDSIZE
 40
0.0
  9
$PLINEWID
 40
0.0
  9
$COORDS
 70
     1
  9
$SPLFRAME
 70
     0
  9
$SPLINETYPE
 70
     6
  9
$SPLINESEGS
 70
     8
  9
$ATTDIA
 70
     0
  9
$ATTREQ
 70
     1
  9
$HANDLING
 70
     1
  9
$HANDSEED
  5
72
  9
$SURFTAB1
 70
     6
  9
$SURFTAB2
 70
     6
  9
$SURFTYPE
 70
     6
  9
$SURFU
 70
     6
  9
$SURFV
 70
     6
  9
$UCSNAME
  2

  9
$UCSORG
 10
0.0
 20
0.0
 30
0.0
  9
$UCSXDIR
 10
1.0
 20
0.0
 30
0.0
  9
$UCSYDIR
 10
0.0
 20
1.0
 30
0.0
  9
$PUCSNAME
  2

  9
$PUCSORG
 10
0.0
 20
0.0
 30
0.0
  9
$PUCSXDIR
 10
1.0
 20
0.0
 30
0.0
  9
$PUCSYDIR
 10
0.0
 20
1.0
 30
0.0
  9
$USERI1
 70
     0
  9
$USERI2
 70
     0
  9
$USERI3
 70
     0
  9
$USERI4
 70
     0
  9
$USERI5
 70
     0
  9
$USERR1
 40
0.0
  9
$USERR2
 40
0.0
  9
$USERR3
 40
0.0
  9
$USERR4
 40
0.0
  9
$USERR5
 40
0.0
  9
$WORLDVIEW
 70
     1
  9
$SHADEDGE
 70
     3
  9
$SHADEDIF
 70
    70
  9
$TILEMODE
 70
     1
  9
$MAXACTVP
 70
    64
  9
$PINSBASE
 10
0.0
 20
0.0
 30
0.0
  9
$PLIMCHECK
 70
     0
  9
$PEXTMIN
 10
1.000000000000000E+20
 20
1.000000000000000E+20
 30
1.000000000000000E+20
  9
$PEXTMAX
 10
-1.000000000000000E+20
 20
-1.000000000000000E+20
 30
-1.000000000000000E+20
  9
$PLIMMIN
 10
0.0
 20
0.0
  9
$PLIMMAX
 10
12.0
 20
9.0
  9
$UNITMODE
 70
     0
  9
$VISRETAIN
 70
     1
  9
$PLINEGEN
 70
     0
  9
$PSLTSCALE
 70
     1
  9
$TREEDEPTH
 70
  3020
  9
$PICKSTYLE
 70
     1
  9
$CMLSTYLE
  2
STANDARD
  9
$CMLJUST
 70
     0
  9
$CMLSCALE
 40
1.0
  9
$SAVEIMAGES
 70
     1
  0
ENDSEC
  0
SECTION
  2
CLASSES
  0
CLASS
  1
ACDBDICTIONARYWDFLT
  2
AcDbDictionaryWithDefault
  3
ObjectDBX Classes
 90
    32768
280
     0
281
     0
  0
CLASS
  1
VISUALSTYLE
  2
AcDbVisualStyle
  3
ObjectDBX Classes
 90
     4095
280
     0
281
     0
  0
CLASS
  1
MATERIAL
  2
AcDbMaterial
  3
ObjectDBX Classes
 90
     1153
280
     0
281
     0
  0
CLASS
  1
SUN
  2
AcDbSun
  3
SCENEOE
 90
     1024
280
     0
281
     0
  0
CLASS
  1
DICTIONARYVAR
  2
AcDbDictionaryVar
  3
ObjectDBX Classes
 90
        0
280
     0
281
     0
  0
CLASS
  1
XRECORD
  2
AcDbXrecord
  3
AutoCAD 2000
 90
    32768
280
     0
281
     0
  0
CLASS
  1
LWPOLYLINE
  2
AcDbPolyline
  3
AutoCAD 2000
 90
    32768
280
     0
281
     1
  0
CLASS
  1
HATCH
  2
AcDbHatch
  3
AutoCAD 2000
 90
    32768
280
     0
281
     1
  0
CLASS
  1
ACDBPLACEHOLDER
  2
AcDbPlaceHolder
  3
ObjectDBX Classes
 90
        0
280
     0
281
     0
  0
CLASS
  1
LAYOUT
  2
AcDbLayout
  3
ObjectDBX Classes
 90
        0
280
     0
281
     0
  0
ENDSEC
  0
SECTION
  2
TABLES
  0
TABLE
  2
VPORT
  5
8
330
0
100
AcDbSymbolTable
 70
     1
  0
VPORT
  5
29
330
8
100
AcDbSymbolTableRecord
100
AcDbViewportTableRecord
  2
*ACTIVE
 70
     0
 10
0.0
 20
0.0
 11
1.0
 21
1.0
 12
0.0
 22
0.0
 13
0.0
 23
0.0
 14
0.5
 24
0.5
 15
0.5
 25
0.5
 16
0.0
 26
0.0
 36
1.0
 17
61.00056942919429
 27
-49.9991944319445
 37
0.0
 40
99.99838886388899
 41
1.220031044944617
 42
50.0
 43
0.0
 44
0.0
 50
0.0
 51
0.0
 71
     0
 72
   100
 73
     1
 74
     3
 75
     0
 76
     0
 77
     0
 78
     0
  0
ENDTAB
  0
TABLE
  2
LTYPE
  5
5
330
0
100
AcDbSymbolTable
 70
     1
  0
LTYPE
  5
14
330
5
100
AcDbSymbolTableRecord
100
AcDbLinetypeTableRecord
  2
BYBLOCK
 70
     0
  3

 72
    65
 73
     0
 40
0.0
  0
LTYPE
  5
15
330
5
100
AcDbSymbolTableRecord
100
AcDbLinetypeTableRecord
  2
BYLAYER
 70
     0
  3

 72
    65
 73
     0
 40
0.0
  0
LTYPE
  5
16
330
5
100
AcDbSymbolTableRecord
100
AcDbLinetypeTableRecord
  2
CONTINUOUS
 70
     0
  3
Solid line
 72
    65
 73
     0
 40
0.0
  0
ENDTAB
  0
TABLE
  2
LAYER
  5
2
330
0
100
AcDbSymbolTable
 70
     2
  0
LAYER
  5
10
330
2
100
AcDbSymbolTableRecord
100
AcDbLayerTableRecord
  2
0
 70
     0
 62
     7
  6
CONTINUOUS
  0
LAYER
  5
40
330
2
100
AcDbSymbolTableRecord
100
AcDbLayerTableRecord
  2
LAYER_1
 70
     0
 62
     7
  6
CONTINUOUS
  0
ENDTAB
  0
TABLE
  2
STYLE
  5
3
330
0
100
AcDbSymbolTable
 70
     1
  0
STYLE
  5
11
330
3
100
AcDbSymbolTableRecord
100
AcDbTextStyleTableRecord
  2
STANDARD
 70
     0
 40
0.0
 41
1.0
 50
0.0
 71
     0
 42
0.2
  3
txt
  4

  0
ENDTAB
  0
TABLE
  2
VIEW
  5
6
330
0
100
AcDbSymbolTable
 70
     0
  0
ENDTAB
  0
TABLE
  2
UCS
  5
7
330
0
100
AcDbSymbolTable
 70
     0
  0
ENDTAB
  0
TABLE
  2
APPID
  5
9
330
0
100
AcDbSymbolTable
 70
     1
  0
APPID
  5
12
330
9
100
AcDbSymbolTableRecord
100
AcDbRegAppTableRecord
  2
ACAD
 70
     0
  0
ENDTAB
  0
TABLE
  2
DIMSTYLE
  5
A
330
0
100
AcDbSymbolTable
 70
     1
  0
DIMSTYLE
105
27
330
A
100
AcDbSymbolTableRecord
100
AcDbDimStyleTableRecord
  2
STANDARD
 70
     0
  3

  4

  5

  6

  7

 40
1.0
 41
0.18
 42
0.0625
 43
0.38
 44
0.18
 45
0.0
 46
0.0
 47
0.0
 48
0.0
140
0.18
141
0.09
142
0.0
143
25.4
144
1.0
145
0.0
146
1.0
147
0.09
 71
     0
 72
     0
 73
     1
 74
     1
 75
     0
 76
     0
 77
     0
 78
     0
170
     0
171
     2
172
     0
173
     0
174
     0
175
     0
176
     0
177
     0
178
     0
270
     2
271
     4
272
     4
273
     2
274
     2
340
11
275
     0
280
     0
281
     0
282
     0
283
     1
284
     0
285
     0
286
     0
287
     3
288
     0
  0
ENDTAB
  0
TABLE
  2
BLOCK_RECORD
  5
1
330
0
100
AcDbSymbolTable
 70
     1
  0
BLOCK_RECORD
  5
1F
330
1
100
AcDbSymbolTableRecord
100
AcDbBlockTableRecord
  2
*MODEL_SPACE
  0
BLOCK_RECORD
  5
1B
330
1
100
AcDbSymbolTableRecord
100
AcDbBlockTableRecord
  2
*PAPER_SPACE
  0
ENDTAB
  0
ENDSEC
  0
SECTION
  2
BLOCKS
  0
BLOCK
  5
20
330
1F
100
AcDbEntity
  8
0
100
AcDbBlockBegin
  2
*MODEL_SPACE
 70
     0
 10
0.0
 20
0.0
 30
0.0
  3
*MODEL_SPACE
  1

  0
ENDBLK
  5
21
330
1F
100
AcDbEntity
  8
0
100
AcDbBlockEnd
  0
BLOCK
  5
1C
330
1B
100
AcDbEntity
 67
     1
  8
0
100
AcDbBlockBegin
  2
*PAPER_SPACE
 70
     0
 10
0.0
 20
0.0
 30
0.0
  3
*PAPER_SPACE
  1

  0
ENDBLK
  5
1D
330
1B
100
AcDbEntity
 67
     1
  8
0
100
AcDbBlockEnd
  0
ENDSEC
  0
SECTION
  2
ENTITIES
  0
SPLINE
  5
41
330
1F
100
AcDbEntity
  8
LAYER_1
 62
     7
100
AcDbSpline
210
0.0
220
0.0
230
1.0
 70
    11
 71
     3
 72
    17
 73
    13
 74
     0
 42
0.0000000001
 43
0.0000000001
 12
1.0
 22
0.0
 32
0.0
 13
1.0
 23
0.0
 33
0.0
 40
0.0
 40
0.0
 40
0.0
 40
0.0
 40
1.0
 40
1.0
 40
1.0
 40
2.0
 40
2.0
 40
2.0
 40
3.0
 40
3.0
 40
3.0
 40
4.0
 40
4.0
 40
4.0
 40
4.0
 10
48.80317193224381
 20
-18.22658138433223
 30
0.0
 10
48.80317193224381
 20
-12.70370416349085
 30
0.0
 10
44.32603387780754
 20
-8.22656610905458
 30
0.0
 10
38.80319193474368
 20
-8.22656610905458
 30
0.0
 10
33.2803147139023
 20
-8.22656610905458
 30
0.0
 10
28.80317665946603
 20
-12.70370416349085
 30
0.0
 10
28.80317665946603
 20
-18.22658138433223
 30
0.0
 10
28.80317665946603
 20
-23.74938804961825
 30
0.0
 10
33.2803147139023
 20
-28.22656138183237
 30
0.0
 10
38.80319193474368
 20
-28.22656138183237
 30
0.0
 10
44.32603387780754
 20
-28.22656138183237
 30
0.0
 10
48.80317193224381
 20
-23.74938804961825
 30
0.0
 10
48.80317193224381
 20
-18.22658138433223
 30
0.0
  0
SPLINE
  5
42
330
1F
100
AcDbEntity
  8
LAYER_1
 62
   163
100
AcDbSpline
210
0.0
220
0.0
230
1.0
 70
    11
 71
     3
 72
    17
 73
    13
 74
     0
 42
0.0000000001
 43
0.0000000001
 12
1.0
 22
0.0
 32
0.0
 13
1.0
 23
0.0
 33
0.0
 40
0.0
 40
0.0
 40
0.0
 40
0.0
 40
1.0
 40
1.0
 40
1.0
 40
2.0
 40
2.0
 40
2.0
 40
3.0
 40
3.0
 40
3.0
 40
4.0
 40
4.0
 40
4.0
 40
4.0
 10
36.30319693536849
 20
-18.22658138433223
 30
0.0
 10
36.30319693536849
 20
-16.84584444023313
 30
0.0
 10
37.42245499064457
 20
-15.72655110717952
 30
0.0
 10
38.80319193474368
 20
-15.72655110717952
 30
0.0
 10
40.18389360106526
 20
-15.72655110717952
 30
0.0
 10
41.30318693411888
 20
-16.84584444023313
 30
0.0
 10
41.30318693411888
 20
-18.22658138433223
 30
0.0
 10
41.30318693411888
 20
-19.60728305065382
 30
0.0
 10
40.18389360106526
 20
-20.7265763837071
 30
0.0
 10
38.80319193474368
 20
-20.7265763837071
 30
0.0
 10
37.42245499064457
 20
-20.7265763837071
 30
0.0
 10
36.30319693536849
 20
-19.60728305065382
 30
0.0
 10
36.30319693536849
 20
-18.22658138433223
 30
0.0
  0
SPLINE
  5
43
330
1F
100
AcDbEntity
  8
LAYER_1
 62
     7
100
AcDbSpline
210
0.0
220
0.0
230
1.0
 70
    11
 71
     3
 72
    17
 73
    13
 74
     0
 42
0.0000000001
 43
0.0000000001
 12
1.0
 22
0.0
 32
0.0
 13
1.0
 23
0.0
 33
0.0
 40
0.0
 40
0.0
 40
0.0
 40
0.0
 40
1.0
 40
1.0
 40
1.0
 40
2.0
 40
2.0
 40
2.0
 40
3.0
 40
3.0
 40
3.0
 40
4.0
 40
4.0
 40
4.0
 40
4.0
 10
48.80317193224381
 20
-38.93192054582246
 30
0.0
 10
48.80317193224381
 20
-33.40904332498108
 30
0.0
 10
44.32603387780754
 20
-28.93190527054481
 30
0.0
 10
38.80319193474368
 20
-28.93190527054481
 30
0.0
 10
33.2803147139023
 20
-28.93190527054481
 30
0.0
 10
28.80317665946603
 20
-33.40904332498108
 30
0.0
 10
28.80317665946603
 20
-38.93192054582246
 30
0.0
 10
28.80317665946603
 20
-44.45472721110848
 30
0.0
 10
33.2803147139023
 20
-48.93190054332259
 30
0.0
 10
38.80319193474368
 20
-48.93190054332259
 30
0.0
 10
44.32603387780754
 20
-48.93190054332259
 30
0.0
 10
48.80317193224381
 20
-44.45472721110848
 30
0.0
 10
48.80317193224381
 20
-38.93192054582246
 30
0.0
  0
SPLINE
  5
44
330
1F
100
AcDbEntity
  8
LAYER_1
 62
   163
100
AcDbSpline
210
0.0
220
0.0
230
1.0
 70
    11
 71
     3
 72
    17
 73
    13
 74
     0
 42
0.0000000001
 43
0.0000000001
 12
1.0
 22
0.0
 32
0.0
 13
1.0
 23
0.0
 33
0.0
 40
0.0
 40
0.0
 40
0.0
 40
0.0
 40
1.0
 40
1.0
 40
1.0
 40
2.0
 40
2.0
 40
2.0
 40
3.0
 40
3.0
 40
3.0
 40
4.0
 40
4.0
 40
4.0
 40
4.0
 10
36.30319693536849
 20
-38.93192054582246
 30
0.0
 10
36.30319693536849
 20
-37.55118360172336
 30
0.0
 10
37.42245499064457
 20
-36.43189026866975
 30
0.0
 10
38.80319193474368
 20
-36.43189026866975
 30
0.0
 10
40.18389360106526
 20
-36.43189026866975
 30
0.0
 10
41.30318693411888
 20
-37.55118360172336
 30
0.0
 10
41.30318693411888
 20
-38.93192054582246
 30
0.0
 10
41.30318693411888
 20
-40.31262221214404
 30
0.0
 10
40.18389360106526
 20
-41.43191554519765
 30
0.0
 10
38.80319193474368
 20
-41.43191554519765
 30
0.0
 10
37.42245499064457
 20
-41.43191554519765
 30
0.0
 10
36.30319693536849
 20
-40.31262221214404
 30
0.0
 10
36.30319693536849
 20
-38.93192054582246
 30
0.0
  0
SPLINE
  5
45
330
1F
100
AcDbEntity
  8
LAYER_1
 62
     7
100
AcDbSpline
210
0.0
220
0.0
230
1.0
 70
    11
 71
     3
 72
    17
 73
    13
 74
     0
 42
0.0000000001
 43
0.0000000001
 12
1.0
 22
0.0
 32
0.0
 13
1.0
 23
0.0
 33
0.0
 40
0.0
 40
0.0
 40
0.0
 40
0.0
 40
1.0
 40
1.0
 40
1.0
 40
2.0
 40
2.0
 40
2.0
 40
3.0
 40
3.0
 40
3.0
 40
4.0
 40
4.0
 40
4.0
 40
4.0
 10
48.80317193224381
 20
-59.98446359611506
 30
0.0
 10
48.80317193224381
 20
-54.4616216530512
 30
0.0
 10
44.32603387780754
 20
-49.98444832083708
 30
0.0
 10
38.80319193474368
 20
-49.98444832083708
 30
0.0
 10
33.2803147139023
 20
-49.98444832083708
 30
0.0
 10
28.80317665946603
 20
-54.4616216530512
 30
0.0
 10
28.80317665946603
 20
-59.98446359611506
 30
0.0
 10
28.80317665946603
 20
-65.50730553917828
 30
0.0
 10
33.2803147139023
 20
-69.98444359361454
 30
0.0
 10
38.80319193474368
 20
-69.98444359361454
 30
0.0
 10
44.32603387780754
 20
-69.98444359361454
 30
0.0
 10
48.80317193224381
 20
-65.50730553917828
 30
0.0
 10
48.80317193224381
 20
-59.98446359611506
 30
0.0
  0
SPLINE
  5
46
330
1F
100
AcDbEntity
  8
LAYER_1
 62
   163
100
AcDbSpline
210
0.0
220
0.0
230
1.0
 70
    11
 71
     3
 72
    17
 73
    13
 74
     0
 42
0.0000000001
 43
0.0000000001
 12
1.0
 22
0.0
 32
0.0
 13
1.0
 23
0.0
 33
0.0
 40
0.0
 40
0.0
 40
0.0
 40
0.0
 40
1.0
 40
1.0
 40
1.0
 40
2.0
 40
2.0
 40
2.0
 40
3.0
 40
3.0
 40
3.0
 40
4.0
 40
4.0
 40
4.0
 40
4.0
 10
36.30319693536849
 20
-59.98446359611506
 30
0.0
 10
36.30319693536849
 20
-58.60372665201595
 30
0.0
 10
37.42245499064457
 20
-57.48446859673986
 30
0.0
 10
38.80319193474368
 20
-57.48446859673986
 30
0.0
 10
40.18389360106526
 20
-57.48446859673986
 30
0.0
 10
41.30318693411888
 20
-58.60372665201595
 30
0.0
 10
41.30318693411888
 20
-59.98446359611506
 30
0.0
 10
41.30318693411888
 20
-61.36516526243664
 30
0.0
 10
40.18389360106526
 20
-62.48445859548961
 30
0.0
 10
38.80319193474368
 20
-62.48445859548961
 30
0.0
 10
37.42245499064457
 20
-62.48445859548961
 30
0.0
 10
36.30319693536849
 20
-61.36516526243664
 30
0.0
 10
36.30319693536849
 20
-59.98446359611506
 30
0.0
  0
SPLINE
  5
47
330
1F
100
AcDbEntity
  8
LAYER_1
 62
     7
100
AcDbSpline
210
0.0
220
0.0
230
1.0
 70
    11
 71
     3
 72
    17
 73
    13
 74
     0
 42
0.0000000001
 43
0.0000000001
 12
1.0
 22
0.0
 32
0.0
 13
1.0
 23
0.0
 33
0.0
 40
0.0
 40
0.0
 40
0.0
 40
0.0
 40
1.0
 40
1.0
 40
1.0
 40
2.0
 40
2.0
 40
2.0
 40
3.0
 40
3.0
 40
3.0
 40
4.0
 40
4.0
 40
4.0
 40
4.0
 10
48.80317193224381
 20
-81.46474970185582
 30
0.0
 10
48.80317193224381
 20
-75.94187248101444
 30
0.0
 10
44.32603387780754
 20
-71.46473442657816
 30
0.0
 10
38.80319193474368
 20
-71.46473442657816
 30
0.0
 10
33.2803147139023
 20
-71.46473442657816
 30
0.0
 10
28.80317665946603
 20
-75.94187248101444
 30
0.0
 10
28.80317665946603
 20
-81.46474970185582
 30
0.0
 10
28.80317665946603
 20
-86.98755636714216
 30
0.0
 10
33.2803147139023
 20
-91.46472969935594
 30
0.0
 10
38.80319193474368
 20
-91.46472969935594
 30
0.0
 10
44.32603387780754
 20
-91.46472969935594
 30
0.0
 10
48.80317193224381
 20
-86.98755636714216
 30
0.0
 10
48.80317193224381
 20
-81.46474970185582
 30
0.0
  0
SPLINE
  5
48
330
1F
100
AcDbEntity
  8
LAYER_1
 62
   163
100
AcDbSpline
210
0.0
220
0.0
230
1.0
 70
    11
 71
     3
 72
    17
 73
    13
 74
     0
 42
0.0000000001
 43
0.0000000001
 12
1.0
 22
0.0
 32
0.0
 13
1.0
 23
0.0
 33
0.0
 40
0.0
 40
0.0
 40
0.0
 40
0.0
 40
1.0
 40
1.0
 40
1.0
 40
2.0
 40
2.0
 40
2.0
 40
3.0
 40
3.0
 40
3.0
 40
4.0
 40
4.0
 40
4.0
 40
4.0
 10
36.30319693536849
 20
-81.46474970185582
 30
0.0
 10
36.30319693536849
 20
-80.08401275775671
 30
0.0
 10
37.42245499064457
 20
-78.9647194247031
 30
0.0
 10
38.80319193474368
 20
-78.9647194247031
 30
0.0
 10
40.18389360106526
 20
-78.9647194247031
 30
0.0
 10
41.30318693411888
 20
-80.08401275775671
 30
0.0
 10
41.30318693411888
 20
-81.46474970185582
 30
0.0
 10
41.30318693411888
 20
-82.84545136817741
 30
0.0
 10
40.18389360106526
 20
-83.96474470123101
 30
0.0
 10
38.80319193474368
 20
-83.96474470123101
 30
0.0
 10
37.42245499064457
 20
-83.96474470123101
 30
0.0
 10
36.30319693536849
 20
-82.84545136817741
 30
0.0
 10
36.30319693536849
 20
-81.46474970185582
 30
0.0
  0
SPLINE
  5
49
330
1F
100
AcDbEntity
  8
LAYER_1
 62
     7
100
AcDbSpline
210
0.0
220
0.0
230
1.0
 70
    11
 71
     3
 72
    17
 73
    13
 74
     0
 42
0.0000000001
 43
0.0000000001
 12
1.0
 22
0.0
 32
0.0
 13
1.0
 23
0.0
 33
0.0
 40
0.0
 40
0.0
 40
0.0
 40
0.0
 40
1.0
 40
1.0
 40
1.0
 40
2.0
 40
2.0
 40
2.0
 40
3.0
 40
3.0
 40
3.0
 40
4.0
 40
4.0
 40
4.0
 40
4.0
 10
26.83492360440242
 20
-18.23660027321867
 30
0.0
 10
26.83492360440242
 20
-12.71375833015481
 30
0.0
 10
22.35778554996615
 20
-8.236584997940696
 30
0.0
 10
16.83494360690261
 20
-8.236584997940696
 30
0.0
 10
11.31206638606091
 20
-8.236584997940696
 30
0.0
 10
6.834928331624637
 20
-12.71375833015481
 30
0.0
 10
6.834928331624637
 20
-18.23660027321867
 30
0.0
 10
6.834928331624637
 20
-23.75944221628221
 30
0.0
 10
11.31206638606091
 20
-28.23658027071848
 30
0.0
 10
16.83494360690261
 20
-28.23658027071848
 30
0.0
 10
22.35778554996615
 20
-28.23658027071848
 30
0.0
 10
26.83492360440242
 20
-23.75944221628221
 30
0.0
 10
26.83492360440242
 20
-18.23660027321867
 30
0.0
  0
SPLINE
  5
4A
330
1F
100
AcDbEntity
  8
LAYER_1
 62
   163
100
AcDbSpline
210
0.0
220
0.0
230
1.0
 70
    11
 71
     3
 72
    17
 73
    13
 74
     0
 42
0.0000000001
 43
0.0000000001
 12
1.0
 22
0.0
 32
0.0
 13
1.0
 23
0.0
 33
0.0
 40
0.0
 40
0.0
 40
0.0
 40
0.0
 40
1.0
 40
1.0
 40
1.0
 40
2.0
 40
2.0
 40
2.0
 40
3.0
 40
3.0
 40
3.0
 40
4.0
 40
4.0
 40
4.0
 40
4.0
 10
14.33494860752742
 20
-18.23660027321867
 30
0.0
 10
14.33494860752742
 20
-16.85586332911924
 30
0.0
 10
15.45420666280318
 20
-15.73660527384347
 30
0.0
 10
16.83494360690261
 20
-15.73660527384347
 30
0.0
 10
18.21564527322387
 20
-15.73660527384347
 30
0.0
 10
19.33493860627748
 20
-16.85586332911924
 30
0.0
 10
19.33493860627748
 20
-18.23660027321867
 30
0.0
 10
19.33493860627748
 20
-19.61730193954025
 30
0.0
 10
18.21564527322387
 20
-20.73659527259354
 30
0.0
 10
16.83494360690261
 20
-20.73659527259354
 30
0.0
 10
15.45420666280318
 20
-20.73659527259354
 30
0.0
 10
14.33494860752742
 20
-19.61730193954025
 30
0.0
 10
14.33494860752742
 20
-18.23660027321867
 30
0.0
  0
SPLINE
  5
4B
330
1F
100
AcDbEntity
  8
LAYER_1
 62
     7
100
AcDbSpline
210
0.0
220
0.0
230
1.0
 70
    11
 71
     3
 72
    17
 73
    13
 74
     0
 42
0.0000000001
 43
0.0000000001
 12
1.0
 22
0.0
 32
0.0
 13
1.0
 23
0.0
 33
0.0
 40
0.0
 40
0.0
 40
0.0
 40
0.0
 40
1.0
 40
1.0
 40
1.0
 40
2.0
 40
2.0
 40
2.0
 40
3.0
 40
3.0
 40
3.0
 40
4.0
 40
4.0
 40
4.0
 40
4.0
 10
26.83492360440242
 20
-38.9419394347089
 30
0.0
 10
26.83492360440242
 20
-33.41909749164536
 30
0.0
 10
22.35778554996615
 20
-28.94192415943125
 30
0.0
 10
16.83494360690261
 20
-28.94192415943125
 30
0.0
 10
11.31206638606091
 20
-28.94192415943125
 30
0.0
 10
6.834928331624637
 20
-33.41909749164536
 30
0.0
 10
6.834928331624637
 20
-38.9419394347089
 30
0.0
 10
6.834928331624637
 20
-44.46478137777275
 30
0.0
 10
11.31206638606091
 20
-48.94191943220903
 30
0.0
 10
16.83494360690261
 20
-48.94191943220903
 30
0.0
 10
22.35778554996615
 20
-48.94191943220903
 30
0.0
 10
26.83492360440242
 20
-44.46478137777275
 30
0.0
 10
26.83492360440242
 20
-38.9419394347089
 30
0.0
  0
SPLINE
  5
4C
330
1F
100
AcDbEntity
  8
LAYER_1
 62
   163
100
AcDbSpline
210
0.0
220
0.0
230
1.0
 70
    11
 71
     3
 72
    17
 73
    13
 74
     0
 42
0.0000000001
 43
0.0000000001
 12
1.0
 22
0.0
 32
0.0
 13
1.0
 23
0.0
 33
0.0
 40
0.0
 40
0.0
 40
0.0
 40
0.0
 40
1.0
 40
1.0
 40
1.0
 40
2.0
 40
2.0
 40
2.0
 40
3.0
 40
3.0
 40
3.0
 40
4.0
 40
4.0
 40
4.0
 40
4.0
 10
14.33494860752742
 20
-38.9419394347089
 30
0.0
 10
14.33494860752742
 20
-37.56120249060979
 30
0.0
 10
15.45420666280318
 20
-36.44194443533402
 30
0.0
 10
16.83494360690261
 20
-36.44194443533402
 30
0.0
 10
18.21564527322387
 20
-36.44194443533402
 30
0.0
 10
19.33493860627748
 20
-37.56120249060979
 30
0.0
 10
19.33493860627748
 20
-38.9419394347089
 30
0.0
 10
19.33493860627748
 20
-40.32264110103048
 30
0.0
 10
18.21564527322387
 20
-41.44193443408409
 30
0.0
 10
16.83494360690261
 20
-41.44193443408409
 30
0.0
 10
15.45420666280318
 20
-41.44193443408409
 30
0.0
 10
14.33494860752742
 20
-40.32264110103048
 30
0.0
 10
14.33494860752742
 20
-38.9419394347089
 30
0.0
  0
SPLINE
  5
4D
330
1F
100
AcDbEntity
  8
LAYER_1
 62
     7
100
AcDbSpline
210
0.0
220
0.0
230
1.0
 70
    11
 71
     3
 72
    17
 73
    13
 74
     0
 42
0.0000000001
 43
0.0000000001
 12
1.0
 22
0.0
 32
0.0
 13
1.0
 23
0.0
 33
0.0
 40
0.0
 40
0.0
 40
0.0
 40
0.0
 40
1.0
 40
1.0
 40
1.0
 40
2.0
 40
2.0
 40
2.0
 40
3.0
 40
3.0
 40
3.0
 40
4.0
 40
4.0
 40
4.0
 40
4.0
 10
26.83492360440242
 20
-59.99448248500117
 30
0.0
 10
26.83492360440242
 20
-54.47164054193795
 30
0.0
 10
22.35778554996615
 20
-49.99446720972352
 30
0.0
 10
16.83494360690261
 20
-49.99446720972352
 30
0.0
 10
11.31206638606091
 20
-49.99446720972352
 30
0.0
 10
6.834928331624637
 20
-54.47164054193795
 30
0.0
 10
6.834928331624637
 20
-59.99448248500117
 30
0.0
 10
6.834928331624637
 20
-65.51732442806502
 30
0.0
 10
11.31206638606091
 20
-69.99449776027882
 30
0.0
 10
16.83494360690261
 20
-69.99449776027882
 30
0.0
 10
22.35778554996615
 20
-69.99449776027882
 30
0.0
 10
26.83492360440242
 20
-65.51732442806502
 30
0.0
 10
26.83492360440242
 20
-59.99448248500117
 30
0.0
  0
SPLINE
  5
4E
330
1F
100
AcDbEntity
  8
LAYER_1
 62
   163
100
AcDbSpline
210
0.0
220
0.0
230
1.0
 70
    11
 71
     3
 72
    17
 73
    13
 74
     0
 42
0.0000000001
 43
0.0000000001
 12
1.0
 22
0.0
 32
0.0
 13
1.0
 23
0.0
 33
0.0
 40
0.0
 40
0.0
 40
0.0
 40
0.0
 40
1.0
 40
1.0
 40
1.0
 40
2.0
 40
2.0
 40
2.0
 40
3.0
 40
3.0
 40
3.0
 40
4.0
 40
4.0
 40
4.0
 40
4.0
 10
14.33494860752742
 20
-59.99448248500117
 30
0.0
 10
14.33494860752742
 20
-58.61378081868023
 30
0.0
 10
15.45420666280318
 20
-57.49448748562661
 30
0.0
 10
16.83494360690261
 20
-57.49448748562661
 30
0.0
 10
18.21564527322387
 20
-57.49448748562661
 30
0.0
 10
19.33493860627748
 20
-58.61378081868023
 30
0.0
 10
19.33493860627748
 20
-59.99448248500117
 30
0.0
 10
19.33493860627748
 20
-61.37521942910027
 30
0.0
 10
18.21564527322387
 20
-62.49447748437636
 30
0.0
 10
16.83494360690261
 20
-62.49447748437636
 30
0.0
 10
15.45420666280318
 20
-62.49447748437636
 30
0.0
 10
14.33494860752742
 20
-61.37521942910027
 30
0.0
 10
14.33494860752742
 20
-59.99448248500117
 30
0.0
  0
SPLINE
  5
4F
330
1F
100
AcDbEntity
  8
LAYER_1
 62
     7
100
AcDbSpline
210
0.0
220
0.0
230
1.0
 70
    11
 71
     3
 72
    17
 73
    13
 74
     0
 42
0.0000000001
 43
0.0000000001
 12
1.0
 22
0.0
 32
0.0
 13
1.0
 23
0.0
 33
0.0
 40
0.0
 40
0.0
 40
0.0
 40
0.0
 40
1.0
 40
1.0
 40
1.0
 40
2.0
 40
2.0
 40
2.0
 40
3.0
 40
3.0
 40
3.0
 40
4.0
 40
4.0
 40
4.0
 40
4.0
 10
26.83492360440242
 20
-81.47476859074257
 30
0.0
 10
26.83492360440242
 20
-75.95192664767872
 30
0.0
 10
22.35778554996615
 20
-71.47475331546428
 30
0.0
 10
16.83494360690261
 20
-71.47475331546428
 30
0.0
 10
11.31206638606091
 20
-71.47475331546428
 30
0.0
 10
6.834928331624637
 20
-75.95192664767872
 30
0.0
 10
6.834928331624637
 20
-81.47476859074257
 30
0.0
 10
6.834928331624637
 20
-86.99761053380644
 30
0.0
 10
11.31206638606091
 20
-91.4747485882427
 30
0.0
 10
16.83494360690261
 20
-91.4747485882427
 30
0.0
 10
22.35778554996615
 20
-91.4747485882427
 30
0.0
 10
26.83492360440242
 20
-86.99761053380644
 30
0.0
 10
26.83492360440242
 20
-81.47476859074257
 30
0.0
  0
SPLINE
  5
50
330
1F
100
AcDbEntity
  8
LAYER_1
 62
   163
100
AcDbSpline
210
0.0
220
0.0
230
1.0
 70
    11
 71
     3
 72
    17
 73
    13
 74
     0
 42
0.0000000001
 43
0.0000000001
 12
1.0
 22
0.0
 32
0.0
 13
1.0
 23
0.0
 33
0.0
 40
0.0
 40
0.0
 40
0.0
 40
0.0
 40
1.0
 40
1.0
 40
1.0
 40
2.0
 40
2.0
 40
2.0
 40
3.0
 40
3.0
 40
3.0
 40
4.0
 40
4.0
 40
4.0
 40
4.0
 10
14.33494860752742
 20
-81.47476859074257
 30
0.0
 10
14.33494860752742
 20
-80.09403164664283
 30
0.0
 10
15.45420666280318
 20
-78.97477359136738
 30
0.0
 10
16.83494360690261
 20
-78.97477359136738
 30
0.0
 10
18.21564527322387
 20
-78.97477359136738
 30
0.0
 10
19.33493860627748
 20
-80.09403164664283
 30
0.0
 10
19.33493860627748
 20
-81.47476859074257
 30
0.0
 10
19.33493860627748
 20
-82.85547025706416
 30
0.0
 10
18.21564527322387
 20
-83.97476359011776
 30
0.0
 10
16.83494360690261
 20
-83.97476359011776
 30
0.0
 10
15.45420666280318
 20
-83.97476359011776
 30
0.0
 10
14.33494860752742
 20
-82.85547025706416
 30
0.0
 10
14.33494860752742
 20
-81.47476859074257
 30
0.0
  0
SPLINE
  5
51
330
1F
100
AcDbEntity
  8
LAYER_1
 62
     7
100
AcDbSpline
210
0.0
220
0.0
230
1.0
 70
    11
 71
     3
 72
    17
 73
    13
 74
     0
 42
0.0000000001
 43
0.0000000001
 12
1.0
 22
0.0
 32
0.0
 13
1.0
 23
0.0
 33
0.0
 40
0.0
 40
0.0
 40
0.0
 40
0.0
 40
1.0
 40
1.0
 40
1.0
 40
2.0
 40
2.0
 40
2.0
 40
3.0
 40
3.0
 40
3.0
 40
4.0
 40
4.0
 40
4.0
 40
4.0
 10
92.90039414344173
 20
-18.22658138433223
 30
0.0
 10
92.90039414344173
 20
-12.70370416349085
 30
0.0
 10
88.42325608900546
 20
-8.22656610905458
 30
0.0
 10
82.9004141459416
 20
-8.22656610905458
 30
0.0
 10
77.37753692510022
 20
-8.22656610905458
 30
0.0
 10
72.90039887066395
 20
-12.70370416349085
 30
0.0
 10
72.90039887066395
 20
-18.22658138433223
 30
0.0
 10
72.90039887066395
 20
-23.74938804961825
 30
0.0
 10
77.37753692510022
 20
-28.22656138183237
 30
0.0
 10
82.9004141459416
 20
-28.22656138183237
 30
0.0
 10
88.42325608900546
 20
-28.22656138183237
 30
0.0
 10
92.90039414344173
 20
-23.74938804961825
 30
0.0
 10
92.90039414344173
 20
-18.22658138433223
 30
0.0
  0
SPLINE
  5
52
330
1F
100
AcDbEntity
  8
LAYER_1
 62
   163
100
AcDbSpline
210
0.0
220
0.0
230
1.0
 70
    11
 71
     3
 72
    17
 73
    13
 74
     0
 42
0.0000000001
 43
0.0000000001
 12
1.0
 22
0.0
 32
0.0
 13
1.0
 23
0.0
 33
0.0
 40
0.0
 40
0.0
 40
0.0
 40
0.0
 40
1.0
 40
1.0
 40
1.0
 40
2.0
 40
2.0
 40
2.0
 40
3.0
 40
3.0
 40
3.0
 40
4.0
 40
4.0
 40
4.0
 40
4.0
 10
80.4004191465664
 20
-18.22658138433223
 30
0.0
 10
80.4004191465664
 20
-16.84584444023313
 30
0.0
 10
81.5196772018425
 20
-15.72655110717952
 30
0.0
 10
82.9004141459416
 20
-15.72655110717952
 30
0.0
 10
84.28111581226318
 20
-15.72655110717952
 30
0.0
 10
85.40040914531679
 20
-16.84584444023313
 30
0.0
 10
85.40040914531679
 20
-18.22658138433223
 30
0.0
 10
85.40040914531679
 20
-19.60728305065382
 30
0.0
 10
84.28111581226318
 20
-20.7265763837071
 30
0.0
 10
82.9004141459416
 20
-20.7265763837071
 30
0.0
 10
81.5196772018425
 20
-20.7265763837071
 30
0.0
 10
80.4004191465664
 20
-19.60728305065382
 30
0.0
 10
80.4004191465664
 20
-18.22658138433223
 30
0.0
  0
SPLINE
  5
53
330
1F
100
AcDbEntity
  8
LAYER_1
 62
     7
100
AcDbSpline
210
0.0
220
0.0
230
1.0
 70
    11
 71
     3
 72
    17
 73
    13
 74
     0
 42
0.0000000001
 43
0.0000000001
 12
1.0
 22
0.0
 32
0.0
 13
1.0
 23
0.0
 33
0.0
 40
0.0
 40
0.0
 40
0.0
 40
0.0
 40
1.0
 40
1.0
 40
1.0
 40
2.0
 40
2.0
 40
2.0
 40
3.0
 40
3.0
 40
3.0
 40
4.0
 40
4.0
 40
4.0
 40
4.0
 10
92.90039414344173
 20
-38.93192054582246
 30
0.0
 10
92.90039414344173
 20
-33.40904332498108
 30
0.0
 10
88.42325608900546
 20
-28.93190527054481
 30
0.0
 10
82.9004141459416
 20
-28.93190527054481
 30
0.0
 10
77.37753692510022
 20
-28.93190527054481
 30
0.0
 10
72.90039887066395
 20
-33.40904332498108
 30
0.0
 10
72.90039887066395
 20
-38.93192054582246
 30
0.0
 10
72.90039887066395
 20
-44.45472721110848
 30
0.0
 10
77.37753692510022
 20
-48.93190054332259
 30
0.0
 10
82.9004141459416
 20
-48.93190054332259
 30
0.0
 10
88.42325608900546
 20
-48.93190054332259
 30
0.0
 10
92.90039414344173
 20
-44.45472721110848
 30
0.0
 10
92.90039414344173
 20
-38.93192054582246
 30
0.0
  0
SPLINE
  5
54
330
1F
100
AcDbEntity
  8
LAYER_1
 62
   163
100
AcDbSpline
210
0.0
220
0.0
230
1.0
 70
    11
 71
     3
 72
    17
 73
    13
 74
     0
 42
0.0000000001
 43
0.0000000001
 12
1.0
 22
0.0
 32
0.0
 13
1.0
 23
0.0
 33
0.0
 40
0.0
 40
0.0
 40
0.0
 40
0.0
 40
1.0
 40
1.0
 40
1.0
 40
2.0
 40
2.0
 40
2.0
 40
3.0
 40
3.0
 40
3.0
 40
4.0
 40
4.0
 40
4.0
 40
4.0
 10
80.4004191465664
 20
-38.93192054582246
 30
0.0
 10
80.4004191465664
 20
-37.55118360172336
 30
0.0
 10
81.5196772018425
 20
-36.43189026866975
 30
0.0
 10
82.9004141459416
 20
-36.43189026866975
 30
0.0
 10
84.28111581226318
 20
-36.43189026866975
 30
0.0
 10
85.40040914531679
 20
-37.55118360172336
 30
0.0
 10
85.40040914531679
 20
-38.93192054582246
 30
0.0
 10
85.40040914531679
 20
-40.31262221214404
 30
0.0
 10
84.28111581226318
 20
-41.43191554519765
 30
0.0
 10
82.9004141459416
 20
-41.43191554519765
 30
0.0
 10
81.5196772018425
 20
-41.43191554519765
 30
0.0
 10
80.4004191465664
 20
-40.31262221214404
 30
0.0
 10
80.4004191465664
 20
-38.93192054582246
 30
0.0
  0
SPLINE
  5
55
330
1F
100
AcDbEntity
  8
LAYER_1
 62
     7
100
AcDbSpline
210
0.0
220
0.0
230
1.0
 70
    11
 71
     3
 72
    17
 73
    13
 74
     0
 42
0.0000000001
 43
0.0000000001
 12
1.0
 22
0.0
 32
0.0
 13
1.0
 23
0.0
 33
0.0
 40
0.0
 40
0.0
 40
0.0
 40
0.0
 40
1.0
 40
1.0
 40
1.0
 40
2.0
 40
2.0
 40
2.0
 40
3.0
 40
3.0
 40
3.0
 40
4.0
 40
4.0
 40
4.0
 40
4.0
 10
92.90039414344173
 20
-59.98446359611506
 30
0.0
 10
92.90039414344173
 20
-54.4616216530512
 30
0.0
 10
88.42325608900546
 20
-49.98444832083708
 30
0.0
 10
82.9004141459416
 20
-49.98444832083708
 30
0.0
 10
77.37753692510022
 20
-49.98444832083708
 30
0.0
 10
72.90039887066395
 20
-54.4616216530512
 30
0.0
 10
72.90039887066395
 20
-59.98446359611506
 30
0.0
 10
72.90039887066395
 20
-65.50730553917828
 30
0.0
 10
77.37753692510022
 20
-69.98444359361454
 30
0.0
 10
82.9004141459416
 20
-69.98444359361454
 30
0.0
 10
88.42325608900546
 20
-69.98444359361454
 30
0.0
 10
92.90039414344173
 20
-65.50730553917828
 30
0.0
 10
92.90039414344173
 20
-59.98446359611506
 30
0.0
  0
SPLINE
  5
56
330
1F
100
AcDbEntity
  8
LAYER_1
 62
   163
100
AcDbSpline
210
0.0
220
0.0
230
1.0
 70
    11
 71
     3
 72
    17
 73
    13
 74
     0
 42
0.0000000001
 43
0.0000000001
 12
1.0
 22
0.0
 32
0.0
 13
1.0
 23
0.0
 33
0.0
 40
0.0
 40
0.0
 40
0.0
 40
0.0
 40
1.0
 40
1.0
 40
1.0
 40
2.0
 40
2.0
 40
2.0
 40
3.0
 40
3.0
 40
3.0
 40
4.0
 40
4.0
 40
4.0
 40
4.0
 10
80.4004191465664
 20
-59.98446359611506
 30
0.0
 10
80.4004191465664
 20
-58.60372665201595
 30
0.0
 10
81.5196772018425
 20
-57.48446859673986
 30
0.0
 10
82.9004141459416
 20
-57.48446859673986
 30
0.0
 10
84.28111581226318
 20
-57.48446859673986
 30
0.0
 10
85.40040914531679
 20
-58.60372665201595
 30
0.0
 10
85.40040914531679
 20
-59.98446359611506
 30
0.0
 10
85.40040914531679
 20
-61.36516526243664
 30
0.0
 10
84.28111581226318
 20
-62.48445859548961
 30
0.0
 10
82.9004141459416
 20
-62.48445859548961
 30
0.0
 10
81.5196772018425
 20
-62.48445859548961
 30
0.0
 10
80.4004191465664
 20
-61.36516526243664
 30
0.0
 10
80.4004191465664
 20
-59.98446359611506
 30
0.0
  0
SPLINE
  5
57
330
1F
100
AcDbEntity
  8
LAYER_1
 62
     7
100
AcDbSpline
210
0.0
220
0.0
230
1.0
 70
    11
 71
     3
 72
    17
 73
    13
 74
     0
 42
0.0000000001
 43
0.0000000001
 12
1.0
 22
0.0
 32
0.0
 13
1.0
 23
0.0
 33
0.0
 40
0.0
 40
0.0
 40
0.0
 40
0.0
 40
1.0
 40
1.0
 40
1.0
 40
2.0
 40
2.0
 40
2.0
 40
3.0
 40
3.0
 40
3.0
 40
4.0
 40
4.0
 40
4.0
 40
4.0
 10
92.90039414344173
 20
-81.46474970185582
 30
0.0
 10
92.90039414344173
 20
-75.94187248101444
 30
0.0
 10
88.42325608900546
 20
-71.46473442657816
 30
0.0
 10
82.9004141459416
 20
-71.46473442657816
 30
0.0
 10
77.37753692510022
 20
-71.46473442657816
 30
0.0
 10
72.90039887066395
 20
-75.94187248101444
 30
0.0
 10
72.90039887066395
 20
-81.46474970185582
 30
0.0
 10
72.90039887066395
 20
-86.98755636714216
 30
0.0
 10
77.37753692510022
 20
-91.46472969935594
 30
0.0
 10
82.9004141459416
 20
-91.46472969935594
 30
0.0
 10
88.42325608900546
 20
-91.46472969935594
 30
0.0
 10
92.90039414344173
 20
-86.98755636714216
 30
0.0
 10
92.90039414344173
 20
-81.46474970185582
 30
0.0
  0
SPLINE
  5
58
330
1F
100
AcDbEntity
  8
LAYER_1
 62
   163
100
AcDbSpline
210
0.0
220
0.0
230
1.0
 70
    11
 71
     3
 72
    17
 73
    13
 74
     0
 42
0.0000000001
 43
0.0000000001
 12
1.0
 22
0.0
 32
0.0
 13
1.0
 23
0.0
 33
0.0
 40
0.0
 40
0.0
 40
0.0
 40
0.0
 40
1.0
 40
1.0
 40
1.0
 40
2.0
 40
2.0
 40
2.0
 40
3.0
 40
3.0
 40
3.0
 40
4.0
 40
4.0
 40
4.0
 40
4.0
 10
80.4004191465664
 20
-81.46474970185582
 30
0.0
 10
80.4004191465664
 20
-80.08401275775671
 30
0.0
 10
81.5196772018425
 20
-78.9647194247031
 30
0.0
 10
82.9004141459416
 20
-78.9647194247031
 30
0.0
 10
84.28111581226318
 20
-78.9647194247031
 30
0.0
 10
85.40040914531679
 20
-80.08401275775671
 30
0.0
 10
85.40040914531679
 20
-81.46474970185582
 30
0.0
 10
85.40040914531679
 20
-82.84545136817741
 30
0.0
 10
84.28111581226318
 20
-83.96474470123101
 30
0.0
 10
82.9004141459416
 20
-83.96474470123101
 30
0.0
 10
81.5196772018425
 20
-83.96474470123101
 30
0.0
 10
80.4004191465664
 20
-82.84545136817741
 30
0.0
 10
80.4004191465664
 20
-81.46474970185582
 30
0.0
  0
SPLINE
  5
59
330
1F
100
AcDbEntity
  8
LAYER_1
 62
     7
100
AcDbSpline
210
0.0
220
0.0
230
1.0
 70
    11
 71
     3
 72
    17
 73
    13
 74
     0
 42
0.0000000001
 43
0.0000000001
 12
1.0
 22
0.0
 32
0.0
 13
1.0
 23
0.0
 33
0.0
 40
0.0
 40
0.0
 40
0.0
 40
0.0
 40
1.0
 40
1.0
 40
1.0
 40
2.0
 40
2.0
 40
2.0
 40
3.0
 40
3.0
 40
3.0
 40
4.0
 40
4.0
 40
4.0
 40
4.0
 10
70.93214581560066
 20
-18.23660027321867
 30
0.0
 10
70.93214581560066
 20
-12.71375833015481
 30
0.0
 10
66.45500776116438
 20
-8.236584997940696
 30
0.0
 10
60.93216581810053
 20
-8.236584997940696
 30
0.0
 10
55.40928859725883
 20
-8.236584997940696
 30
0.0
 10
50.93215054282255
 20
-12.71375833015481
 30
0.0
 10
50.93215054282255
 20
-18.23660027321867
 30
0.0
 10
50.93215054282255
 20
-23.75944221628221
 30
0.0
 10
55.40928859725883
 20
-28.23658027071848
 30
0.0
 10
60.93216581810053
 20
-28.23658027071848
 30
0.0
 10
66.45500776116438
 20
-28.23658027071848
 30
0.0
 10
70.93214581560066
 20
-23.75944221628221
 30
0.0
 10
70.93214581560066
 20
-18.23660027321867
 30
0.0
  0
SPLINE
  5
5A
330
1F
100
AcDbEntity
  8
LAYER_1
 62
   163
100
AcDbSpline
210
0.0
220
0.0
230
1.0
 70
    11
 71
     3
 72
    17
 73
    13
 74
     0
 42
0.0000000001
 43
0.0000000001
 12
1.0
 22
0.0
 32
0.0
 13
1.0
 23
0.0
 33
0.0
 40
0.0
 40
0.0
 40
0.0
 40
0.0
 40
1.0
 40
1.0
 40
1.0
 40
2.0
 40
2.0
 40
2.0
 40
3.0
 40
3.0
 40
3.0
 40
4.0
 40
4.0
 40
4.0
 40
4.0
 10
58.43217081872533
 20
-18.23660027321867
 30
0.0
 10
58.43217081872533
 20
-16.85586332911924
 30
0.0
 10
59.5514288740011
 20
-15.73660527384347
 30
0.0
 10
60.93216581810053
 20
-15.73660527384347
 30
0.0
 10
62.31286748442211
 20
-15.73660527384347
 30
0.0
 10
63.43216081747572
 20
-16.85586332911924
 30
0.0
 10
63.43216081747572
 20
-18.23660027321867
 30
0.0
 10
63.43216081747572
 20
-19.61730193954025
 30
0.0
 10
62.31286748442211
 20
-20.73659527259354
 30
0.0
 10
60.93216581810053
 20
-20.73659527259354
 30
0.0
 10
59.5514288740011
 20
-20.73659527259354
 30
0.0
 10
58.43217081872533
 20
-19.61730193954025
 30
0.0
 10
58.43217081872533
 20
-18.23660027321867
 30
0.0
  0
SPLINE
  5
5B
330
1F
100
AcDbEntity
  8
LAYER_1
 62
     7
100
AcDbSpline
210
0.0
220
0.0
230
1.0
 70
    11
 71
     3
 72
    17
 73
    13
 74
     0
 42
0.0000000001
 43
0.0000000001
 12
1.0
 22
0.0
 32
0.0
 13
1.0
 23
0.0
 33
0.0
 40
0.0
 40
0.0
 40
0.0
 40
0.0
 40
1.0
 40
1.0
 40
1.0
 40
2.0
 40
2.0
 40
2.0
 40
3.0
 40
3.0
 40
3.0
 40
4.0
 40
4.0
 40
4.0
 40
4.0
 10
70.93214581560066
 20
-38.9419394347089
 30
0.0
 10
70.93214581560066
 20
-33.41909749164536
 30
0.0
 10
66.45500776116438
 20
-28.94192415943125
 30
0.0
 10
60.93216581810053
 20
-28.94192415943125
 30
0.0
 10
55.40928859725883
 20
-28.94192415943125
 30
0.0
 10
50.93215054282255
 20
-33.41909749164536
 30
0.0
 10
50.93215054282255
 20
-38.9419394347089
 30
0.0
 10
50.93215054282255
 20
-44.46478137777275
 30
0.0
 10
55.40928859725883
 20
-48.94191943220903
 30
0.0
 10
60.93216581810053
 20
-48.94191943220903
 30
0.0
 10
66.45500776116438
 20
-48.94191943220903
 30
0.0
 10
70.93214581560066
 20
-44.46478137777275
 30
0.0
 10
70.93214581560066
 20
-38.9419394347089
 30
0.0
  0
SPLINE
  5
5C
330
1F
100
AcDbEntity
  8
LAYER_1
 62
   163
100
AcDbSpline
210
0.0
220
0.0
230
1.0
 70
    11
 71
     3
 72
    17
 73
    13
 74
     0
 42
0.0000000001
 43
0.0000000001
 12
1.0
 22
0.0
 32
0.0
 13
1.0
 23
0.0
 33
0.0
 40
0.0
 40
0.0
 40
0.0
 40
0.0
 40
1.0
 40
1.0
 40
1.0
 40
2.0
 40
2.0
 40
2.0
 40
3.0
 40
3.0
 40
3.0
 40
4.0
 40
4.0
 40
4.0
 40
4.0
 10
58.43217081872533
 20
-38.9419394347089
 30
0.0
 10
58.43217081872533
 20
-37.56120249060979
 30
0.0
 10
59.5514288740011
 20
-36.44194443533402
 30
0.0
 10
60.93216581810053
 20
-36.44194443533402
 30
0.0
 10
62.31286748442211
 20
-36.44194443533402
 30
0.0
 10
63.43216081747572
 20
-37.56120249060979
 30
0.0
 10
63.43216081747572
 20
-38.9419394347089
 30
0.0
 10
63.43216081747572
 20
-40.32264110103048
 30
0.0
 10
62.31286748442211
 20
-41.44193443408409
 30
0.0
 10
60.93216581810053
 20
-41.44193443408409
 30
0.0
 10
59.5514288740011
 20
-41.44193443408409
 30
0.0
 10
58.43217081872533
 20
-40.32264110103048
 30
0.0
 10
58.43217081872533
 20
-38.9419394347089
 30
0.0
  0
SPLINE
  5
5D
330
1F
100
AcDbEntity
  8
LAYER_1
 62
     7
100
AcDbSpline
210
0.0
220
0.0
230
1.0
 70
    11
 71
     3
 72
    17
 73
    13
 74
     0
 42
0.0000000001
 43
0.0000000001
 12
1.0
 22
0.0
 32
0.0
 13
1.0
 23
0.0
 33
0.0
 40
0.0
 40
0.0
 40
0.0
 40
0.0
 40
1.0
 40
1.0
 40
1.0
 40
2.0
 40
2.0
 40
2.0
 40
3.0
 40
3.0
 40
3.0
 40
4.0
 40
4.0
 40
4.0
 40
4.0
 10
70.93214581560066
 20
-59.99448248500117
 30
0.0
 10
70.93214581560066
 20
-54.47164054193795
 30
0.0
 10
66.45500776116438
 20
-49.99446720972352
 30
0.0
 10
60.93216581810053
 20
-49.99446720972352
 30
0.0
 10
55.40928859725883
 20
-49.99446720972352
 30
0.0
 10
50.93215054282255
 20
-54.47164054193795
 30
0.0
 10
50.93215054282255
 20
-59.99448248500117
 30
0.0
 10
50.93215054282255
 20
-65.51732442806502
 30
0.0
 10
55.40928859725883
 20
-69.99449776027882
 30
0.0
 10
60.93216581810053
 20
-69.99449776027882
 30
0.0
 10
66.45500776116438
 20
-69.99449776027882
 30
0.0
 10
70.93214581560066
 20
-65.51732442806502
 30
0.0
 10
70.93214581560066
 20
-59.99448248500117
 30
0.0
  0
SPLINE
  5
5E
330
1F
100
AcDbEntity
  8
LAYER_1
 62
   163
100
AcDbSpline
210
0.0
220
0.0
230
1.0
 70
    11
 71
     3
 72
    17
 73
    13
 74
     0
 42
0.0000000001
 43
0.0000000001
 12
1.0
 22
0.0
 32
0.0
 13
1.0
 23
0.0
 33
0.0
 40
0.0
 40
0.0
 40
0.0
 40
0.0
 40
1.0
 40
1.0
 40
1.0
 40
2.0
 40
2.0
 40
2.0
 40
3.0
 40
3.0
 40
3.0
 40
4.0
 40
4.0
 40
4.0
 40
4.0
 10
58.43217081872533
 20
-59.99448248500117
 30
0.0
 10
58.43217081872533
 20
-58.61378081868023
 30
0.0
 10
59.5514288740011
 20
-57.49448748562661
 30
0.0
 10
60.93216581810053
 20
-57.49448748562661
 30
0.0
 10
62.31286748442211
 20
-57.49448748562661
 30
0.0
 10
63.43216081747572
 20
-58.61378081868023
 30
0.0
 10
63.43216081747572
 20
-59.99448248500117
 30
0.0
 10
63.43216081747572
 20
-61.37521942910027
 30
0.0
 10
62.31286748442211
 20
-62.49447748437636
 30
0.0
 10
60.93216581810053
 20
-62.49447748437636
 30
0.0
 10
59.5514288740011
 20
-62.49447748437636
 30
0.0
 10
58.43217081872533
 20
-61.37521942910027
 30
0.0
 10
58.43217081872533
 20
-59.99448248500117
 30
0.0
  0
SPLINE
  5
5F
330
1F
100
AcDbEntity
  8
LAYER_1
 62
     7
100
AcDbSpline
210
0.0
220
0.0
230
1.0
 70
    11
 71
     3
 72
    17
 73
    13
 74
     0
 42
0.0000000001
 43
0.0000000001
 12
1.0
 22
0.0
 32
0.0
 13
1.0
 23
0.0
 33
0.0
 40
0.0
 40
0.0
 40
0.0
 40
0.0
 40
1.0
 40
1.0
 40
1.0
 40
2.0
 40
2.0
 40
2.0
 40
3.0
 40
3.0
 40
3.0
 40
4.0
 40
4.0
 40
4.0
 40
4.0
 10
70.93214581560066
 20
-81.47476859074257
 30
0.0
 10
70.93214581560066
 20
-75.95192664767872
 30
0.0
 10
66.45500776116438
 20
-71.47475331546428
 30
0.0
 10
60.93216581810053
 20
-71.47475331546428
 30
0.0
 10
55.40928859725883
 20
-71.47475331546428
 30
0.0
 10
50.93215054282255
 20
-75.95192664767872
 30
0.0
 10
50.93215054282255
 20
-81.47476859074257
 30
0.0
 10
50.93215054282255
 20
-86.99761053380644
 30
0.0
 10
55.40928859725883
 20
-91.4747485882427
 30
0.0
 10
60.93216581810053
 20
-91.4747485882427
 30
0.0
 10
66.45500776116438
 20
-91.4747485882427
 30
0.0
 10
70.93214581560066
 20
-86.99761053380644
 30
0.0
 10
70.93214581560066
 20
-81.47476859074257
 30
0.0
  0
SPLINE
  5
60
330
1F
100
AcDbEntity
  8
LAYER_1
 62
   163
100
AcDbSpline
210
0.0
220
0.0
230
1.0
 70
    11
 71
     3
 72
    17
 73
    13
 74
     0
 42
0.0000000001
 43
0.0000000001
 12
1.0
 22
0.0
 32
0.0
 13
1.0
 23
0.0
 33
0.0
 40
0.0
 40
0.0
 40
0.0
 40
0.0
 40
1.0
 40
1.0
 40
1.0
 40
2.0
 40
2.0
 40
2.0
 40
3.0
 40
3.0
 40
3.0
 40
4.0
 40
4.0
 40
4.0
 40
4.0
 10
58.43217081872533
 20
-81.47476859074257
 30
0.0
 10
58.43217081872533
 20
-80.09403164664283
 30
0.0
 10
59.5514288740011
 20
-78.97477359136738
 30
0.0
 10
60.93216581810053
 20
-78.97477359136738
 30
0.0
 10
62.31286748442211
 20
-78.97477359136738
 30
0.0
 10
63.43216081747572
 20
-80.09403164664283
 30
0.0
 10
63.43216081747572
 20
-81.47476859074257
 30
0.0
 10
63.43216081747572
 20
-82.85547025706416
 30
0.0
 10
62.31286748442211
 20
-83.97476359011776
 30
0.0
 10
60.93216581810053
 20
-83.97476359011776
 30
0.0
 10
59.5514288740011
 20
-83.97476359011776
 30
0.0
 10
58.43217081872533
 20
-82.85547025706416
 30
0.0
 10
58.43217081872533
 20
-81.47476859074257
 30
0.0
  0
SPLINE
  5
61
330
1F
100
AcDbEntity
  8
LAYER_1
 62
     7
100
AcDbSpline
210
0.0
220
0.0
230
1.0
 70
    11
 71
     3
 72
    29
 73
    25
 74
     0
 42
0.0000000001
 43
0.0000000001
 12
1.0
 22
0.0
 32
0.0
 13
1.0
 23
0.0
 33
0.0
 40
0.0
 40
0.0
 40
0.0
 40
0.0
 40
1.0
 40
1.0
 40
1.0
 40
2.0
 40
2.0
 40
2.0
 40
3.0
 40
3.0
 40
3.0
 40
4.0
 40
4.0
 40
4.0
 40
5.0
 40
5.0
 40
5.0
 40
6.0
 40
6.0
 40
6.0
 40
7.0
 40
7.0
 40
7.0
 40
8.0
 40
8.0
 40
8.0
 40
8.0
 10
113.7828806659985
 20
-45.54962596083508
 30
0.0
 10
113.7828806659985
 20
-45.54962596083508
 30
0.0
 10
113.7828806659985
 20
-11.17114930276285
 30
0.0
 10
113.7828806659985
 20
-11.17114930276285
 30
0.0
 10
113.7828806659985
 20
-9.269782914349397
 30
0.0
 10
112.056597888652
 20
-7.728390970290197
 30
0.0
 10
109.9271253891845
 20
-7.728390970290197
 30
0.0
 10
109.9271253891845
 20
-7.728390970290197
 30
0.0
 10
99.99978233611095
 20
-7.728390970290197
 30
0.0
 10
99.99978233611095
 20
-7.728390970290197
 30
0.0
 10
97.87030983664341
 20
-7.728390970290197
 30
0.0
 10
96.14399178151939
 20
-9.269782914349397
 30
0.0
 10
96.14399178151939
 20
-11.17114930276285
 30
0.0
 10
96.14399178151939
 20
-11.17114930276285
 30
0.0
 10
96.14399178151939
 20
-45.54962596083508
 30
0.0
 10
96.14399178151939
 20
-45.54962596083508
 30
0.0
 10
96.14399178151939
 20
-47.45102762702669
 30
0.0
 10
97.87030983664341
 20
-48.99241957108525
 30
0.0
 10
99.99978233611095
 20
-48.99241957108525
 30
0.0
 10
99.99978233611095
 20
-48.99241957108525
 30
0.0
 10
109.9271253891845
 20
-48.99241957108525
 30
0.0
 10
109.9271253891845
 20
-48.99241957108525
 30
0.0
 10
112.056597888652
 20
-48.99241957108525
 30
0.0
 10
113.7828806659985
 20
-47.45102762702669
 30
0.0
 10
113.7828806659985
 20
-45.54962596083508
 30
0.0
  0
SPLINE
  5
62
330
1F
100
AcDbEntity
  8
LAYER_1
 62
   163
100
AcDbSpline
210
0.0
220
0.0
230
1.0
 70
    11
 71
     3
 72
    17
 73
    13
 74
     0
 42
0.0000000001
 43
0.0000000001
 12
1.0
 22
0.0
 32
0.0
 13
1.0
 23
0.0
 33
0.0
 40
0.0
 40
0.0
 40
0.0
 40
0.0
 40
1.0
 40
1.0
 40
1.0
 40
2.0
 40
2.0
 40
2.0
 40
3.0
 40
3.0
 40
3.0
 40
4.0
 40
4.0
 40
4.0
 40
4.0
 10
102.4634412243844
 20
-17.24241957902275
 30
0.0
 10
102.4634412243844
 20
-15.8617179127018
 30
0.0
 10
103.5827345574374
 20
-14.7424245796482
 30
0.0
 10
104.963436223759
 20
-14.7424245796482
 30
0.0
 10
106.3441378900806
 20
-14.7424245796482
 30
0.0
 10
107.4634312231342
 20
-15.8617179127018
 30
0.0
 10
107.4634312231342
 20
-17.24241957902275
 30
0.0
 10
107.4634312231342
 20
-18.62312124534433
 30
0.0
 10
106.3441378900806
 20
-19.74241457839794
 30
0.0
 10
104.963436223759
 20
-19.74241457839794
 30
0.0
 10
103.5827345574374
 20
-19.74241457839794
 30
0.0
 10
102.4634412243844
 20
-18.62312124534433
 30
0.0
 10
102.4634412243844
 20
-17.24241957902275
 30
0.0
  0
SPLINE
  5
63
330
1F
100
AcDbEntity
  8
LAYER_1
 62
   163
100
AcDbSpline
210
0.0
220
0.0
230
1.0
 70
    11
 71
     3
 72
    17
 73
    13
 74
     0
 42
0.0000000001
 43
0.0000000001
 12
1.0
 22
0.0
 32
0.0
 13
1.0
 23
0.0
 33
0.0
 40
0.0
 40
0.0
 40
0.0
 40
0.0
 40
1.0
 40
1.0
 40
1.0
 40
2.0
 40
2.0
 40
2.0
 40
3.0
 40
3.0
 40
3.0
 40
4.0
 40
4.0
 40
4.0
 40
4.0
 10
102.4634412243844
 20
-39.95333568445656
 30
0.0
 10
102.4634412243844
 20
-38.57263401813498
 30
0.0
 10
103.5827345574374
 20
-37.45334068508136
 30
0.0
 10
104.963436223759
 20
-37.45334068508136
 30
0.0
 10
106.3441378900806
 20
-37.45334068508136
 30
0.0
 10
107.4634312231342
 20
-38.57263401813498
 30
0.0
 10
107.4634312231342
 20
-39.95333568445656
 30
0.0
 10
107.4634312231342
 20
-41.33407262855567
 30
0.0
 10
106.3441378900806
 20
-42.45336596160927
 30
0.0
 10
104.963436223759
 20
-42.45336596160927
 30
0.0
 10
103.5827345574374
 20
-42.45336596160927
 30
0.0
 10
102.4634412243844
 20
-41.33407262855567
 30
0.0
 10
102.4634412243844
 20
-39.95333568445656
 30
0.0
  0
SPLINE
  5
64
330
1F
100
AcDbEntity
  8
LAYER_1
 62
     7
100
AcDbSpline
210
0.0
220
0.0
230
1.0
 70
    11
 71
     3
 72
    29
 73
    25
 74
     0
 42
0.0000000001
 43
0.0000000001
 12
1.0
 22
0.0
 32
0.0
 13
1.0
 23
0.0
 33
0.0
 40
0.0
 40
0.0
 40
0.0
 40
0.0
 40
1.0
 40
1.0
 40
1.0
 40
2.0
 40
2.0
 40
2.0
 40
3.0
 40
3.0
 40
3.0
 40
4.0
 40
4.0
 40
4.0
 40
5.0
 40
5.0
 40
5.0
 40
6.0
 40
6.0
 40
6.0
 40
7.0
 40
7.0
 40
7.0
 40
8.0
 40
8.0
 40
8.0
 40
8.0
 10
113.7828806659985
 20
-88.5886559500756
 30
0.0
 10
113.7828806659985
 20
-88.5886559500756
 30
0.0
 10
113.7828806659985
 20
-54.21017929200337
 30
0.0
 10
113.7828806659985
 20
-54.21017929200337
 30
0.0
 10
113.7828806659985
 20
-52.30881290358992
 30
0.0
 10
112.0565978886527
 20
-50.76742095953072
 30
0.0
 10
109.9270901114076
 20
-50.76742095953072
 30
0.0
 10
109.9270901114076
 20
-50.76742095953072
 30
0.0
 10
99.9997823361116
 20
-50.76742095953072
 30
0.0
 10
99.9997823361116
 20
-50.76742095953072
 30
0.0
 10
97.87027455886589
 20
-50.76742095953072
 30
0.0
 10
96.14399178151939
 20
-52.30881290358992
 30
0.0
 10
96.14399178151939
 20
-54.21017929200337
 30
0.0
 10
96.14399178151939
 20
-54.21017929200337
 30
0.0
 10
96.14399178151939
 20
-88.5886559500756
 30
0.0
 10
96.14399178151939
 20
-88.5886559500756
 30
0.0
 10
96.14399178151939
 20
-90.49005761626722
 30
0.0
 10
97.87027455886589
 20
-92.03144956032578
 30
0.0
 10
99.9997823361116
 20
-92.03144956032578
 30
0.0
 10
99.9997823361116
 20
-92.03144956032578
 30
0.0
 10
109.9270901114076
 20
-92.03144956032578
 30
0.0
 10
109.9270901114076
 20
-92.03144956032578
 30
0.0
 10
112.0565978886527
 20
-92.03144956032578
 30
0.0
 10
113.7828806659985
 20
-90.49005761626722
 30
0.0
 10
113.7828806659985
 20
-88.5886559500756
 30
0.0
  0
SPLINE
  5
65
330
1F
100
AcDbEntity
  8
LAYER_1
 62
   163
100
AcDbSpline
210
0.0
220
0.0
230
1.0
 70
    11
 71
     3
 72
    17
 73
    13
 74
     0
 42
0.0000000001
 43
0.0000000001
 12
1.0
 22
0.0
 32
0.0
 13
1.0
 23
0.0
 33
0.0
 40
0.0
 40
0.0
 40
0.0
 40
0.0
 40
1.0
 40
1.0
 40
1.0
 40
2.0
 40
2.0
 40
2.0
 40
3.0
 40
3.0
 40
3.0
 40
4.0
 40
4.0
 40
4.0
 40
4.0
 10
102.4634412243844
 20
-60.28144956826328
 30
0.0
 10
102.4634412243844
 20
-58.90074790194233
 30
0.0
 10
103.582734557438
 20
-57.78145456888873
 30
0.0
 10
104.963436223759
 20
-57.78145456888873
 30
0.0
 10
106.3441378900812
 20
-57.78145456888873
 30
0.0
 10
107.4634312231342
 20
-58.90074790194233
 30
0.0
 10
107.4634312231342
 20
-60.28144956826328
 30
0.0
 10
107.4634312231342
 20
-61.66215123458486
 30
0.0
 10
106.3441378900812
 20
-62.78144456763847
 30
0.0
 10
104.963436223759
 20
-62.78144456763847
 30
0.0
 10
103.582734557438
 20
-62.78144456763847
 30
0.0
 10
102.4634412243844
 20
-61.66215123458486
 30
0.0
 10
102.4634412243844
 20
-60.28144956826328
 30
0.0
  0
SPLINE
  5
66
330
1F
100
AcDbEntity
  8
LAYER_1
 62
   163
100
AcDbSpline
210
0.0
220
0.0
230
1.0
 70
    11
 71
     3
 72
    17
 73
    13
 74
     0
 42
0.0000000001
 43
0.0000000001
 12
1.0
 22
0.0
 32
0.0
 13
1.0
 23
0.0
 33
0.0
 40
0.0
 40
0.0
 40
0.0
 40
0.0
 40
1.0
 40
1.0
 40
1.0
 40
2.0
 40
2.0
 40
2.0
 40
3.0
 40
3.0
 40
3.0
 40
4.0
 40
4.0
 40
4.0
 40
4.0
 10
102.4634412243844
 20
-82.9923656736971
 30
0.0
 10
102.4634412243844
 20
-81.61166400737551
 30
0.0
 10
103.582734557438
 20
-80.49237067432189
 30
0.0
 10
104.963436223759
 20
-80.49237067432189
 30
0.0
 10
106.3441378900812
 20
-80.49237067432189
 30
0.0
 10
107.4634312231342
 20
-81.61166400737551
 30
0.0
 10
107.4634312231342
 20
-82.9923656736971
 30
0.0
 10
107.4634312231342
 20
-84.37310261779619
 30
0.0
 10
106.3441378900812
 20
-85.4923959508498
 30
0.0
 10
104.963436223759
 20
-85.4923959508498
 30
0.0
 10
103.582734557438
 20
-85.4923959508498
 30
0.0
 10
102.4634412243844
 20
-84.37310261779619
 30
0.0
 10
102.4634412243844
 20
-82.9923656736971
 30
0.0
  0
ENDSEC
  0
SECTION
  2
OBJECTS
  0
DICTIONARY
  5
C
330
0
100
AcDbDictionary
  3
ACAD_GROUP
350
D
  3
ACAD_LAYOUT
350
1A
  3
ACAD_MATERIAL
350
3B
  3
ACAD_MLEADERSTYLE
350
69
  3
ACAD_MLINESTYLE
350
17
  3
ACAD_PLOTSETTINGS
350
19
  3
ACAD_VISUALSTYLE
350
2A
  3
ACDBVARIABLEDICTIONARY
350
67
1001
ACAD
1000
TREAT_AS_HARD
1070
     0
  0
DICTIONARY
  5
D
102
{ACAD_REACTORS
330
C
102
}
330
C
100
AcDbDictionary
1001
ACAD
1000
TREAT_AS_HARD
1070
     0
  0
DICTIONARY
  5
1A
102
{ACAD_REACTORS
330
C
102
}
330
C
100
AcDbDictionary
1001
ACAD
1000
TREAT_AS_HARD
1070
     0
  0
DICTIONARY
  5
3B
102
{ACAD_REACTORS
330
C
102
}
330
C
100
AcDbDictionary
  3
BYBLOCK
350
3D
  3
BYLAYER
350
3C
  3
GLOBAL
350
3E
1001
ACAD
1000
TREAT_AS_HARD
1070
     0
  0
DICTIONARY
  5
69
102
{ACAD_REACTORS
330
C
102
}
330
C
100
AcDbDictionary
1001
ACAD
1000
TREAT_AS_HARD
1070
     0
  0
DICTIONARY
  5
17
102
{ACAD_REACTORS
330
C
102
}
330
C
100
AcDbDictionary
  3
STANDARD
350
18
1001
ACAD
1000
TREAT_AS_HARD
1070
     0
  0
DICTIONARY
  5
19
102
{ACAD_REACTORS
330
C
102
}
330
C
100
AcDbDictionary
1001
ACAD
1000
TREAT_AS_HARD
1070
     0
  0
DICTIONARY
  5
2A
102
{ACAD_REACTORS
330
C
102
}
330
C
100
AcDbDictionary
  3
2DWIREFRAME
350
2F
  3
3D_HIDDEN
350
31
  3
3DWIREFRAME
350
30
  3
BASIC
350
32
  3
BRIGHTEN
350
36
  3
COLORCHANGE
350
3A
  3
CONCEPTUAL
350
34
  3
DIM
350
35
  3
FACEPATTERN
350
39
  3
FLAT
350
2B
  3
FLATWITHEDGES
350
2C
  3
GOURAUD
350
2D
  3
GOURAUDWITHEDGES
350
2E
  3
LINEPATTERN
350
38
  3
REALISTIC
350
33
  3
THICKEN
350
37
1001
ACAD
1000
TREAT_AS_HARD
1070
     0
  0
DICTIONARY
  5
67
102
{ACAD_REACTORS
330
C
102
}
330
C
100
AcDbDictionary
  3
DIMASSOC
350
6A
  3
HIDETEXT
350
6B
1001
ACAD
1000
TREAT_AS_HARD
1070
     0
  0
MATERIAL
  5
3D
102
{ACAD_REACTORS
330
3B
102
}
102
{ACAD_XDICTIONARY
360
6E
102
}
330
3B
100
AcDbMaterial
  1
ByBlock
  0
MATERIAL
  5
3C
102
{ACAD_REACTORS
330
3B
102
}
102
{ACAD_XDICTIONARY
360
6C
102
}
330
3B
100
AcDbMaterial
  1
ByLayer
  0
MATERIAL
  5
3E
102
{ACAD_REACTORS
330
3B
102
}
102
{ACAD_XDICTIONARY
360
70
102
}
330
3B
100
AcDbMaterial
  1
Global
  0
MLINESTYLE
  5
18
102
{ACAD_REACTORS
330
17
102
}
330
17
100
AcDbMlineStyle
  2
Standard
 70
     0
  3

 62
   256
 51
90.0
 52
90.0
 71
     2
 49
0.5
 62
   256
  6
BYLAYER
 49
-0.5
 62
   256
  6
BYLAYER
  0
ACAD_PROXY_OBJECT
  5
2F
102
{ACAD_REACTORS
330
2A
102
}
330
2A
100
AcDbZombieObject
 90
      499
 91
      501
 93
      436
310
42CC9915DA5C99599C985B595049028333333333333E3BF0000000000000FB0107901411070040501600405405064090741402480A0340
1001
ACAD
1000
AcDbSavedByObjectVersion
1070
     0
  0
ACAD_PROXY_OBJECT
  5
31
102
{ACAD_REACTORS
330
2A
102
}
330
2A
100
AcDbZombieObject
 90
      499
 91
      501
 93
      500
310
424CD108121A5919195B90640502408333333333333E3BF0000000000000FB01079024090700405020000000000001110200405405064090740C02480A0340
1001
ACAD
1000
AcDbSavedByObjectVersion
1070
     0
  0
ACAD_PROXY_OBJECT
  5
30
102
{ACAD_REACTORS
330
2A
102
}
330
2A
100
AcDbZombieObject
 90
      499
 91
      501
 93
      436
310
42CCD915DA5C99599C985B595059028333333333333E3BF0000000000000FB0107901411070040501600405405064090741402480A0340
1001
ACAD
1000
AcDbSavedByObjectVersion
1070
     0
  0
ACAD_PROXY_OBJECT
  5
32
102
{ACAD_REACTORS
330
2A
102
}
330
2A
100
AcDbZombieObject
 90
      499
 91
      501
 93
      388
310
4150985CDA58D07406404333333333333E3BF0000000000000FB0107A41107004050150841D405064090741402480A0350
1001
ACAD
1000
AcDbSavedByObjectVersion
1070
     0
  0
ACAD_PROXY_OBJECT
  5
36
102
{ACAD_REACTORS
330
2A
102
}
330
2A
100
AcDbZombieObject
 90
      499
 91
      501
 93
      428
310
42109C9A59DA1D195B90C409028333333333333E3BF0000000000000FB010790141107004050150841D405064090741402480A029950
1001
ACAD
1000
AcDbSavedByObjectVersion
1070
     0
  0
ACAD_PROXY_OBJECT
  5
3A
102
{ACAD_REACTORS
330
2A
102
}
330
2A
100
AcDbZombieObject
 90
      499
 91
      501
 93
      452
310
42D0DBDB1BDC90DA185B99D95104090240C333333333333E3BF0000000000000FB0108901411070040501508421405064090741402480A0350
1001
ACAD
1000
AcDbSavedByObjectVersion
1070
     0
  0
ACAD_PROXY_OBJECT
  5
34
102
{ACAD_REACTORS
330
2A
102
}
330
2A
100
AcDbZombieObject
 90
      499
 91
      501
 93
      500
310
4290DBDB98D95C1D1D585B10940D028333333333333E3BF0000000000000FB0107902409070040501000000000000111010841D405064090740C02480A0340
1001
ACAD
1000
AcDbSavedByObjectVersion
1070
     0
  0
ACAD_PROXY_OBJECT
  5
35
102
{ACAD_REACTORS
330
2A
102
}
330
2A
100
AcDbZombieObject
 90
      499
 91
      501
 93
      412
310
40D11A5B50B409028333333333333E3BF0000000000000FB010790141107004050150841D405064090741402480A02677FFFFFD0
1001
ACAD
1000
AcDbSavedByObjectVersion
1070
     0
  0
ACAD_PROXY_OBJECT
  5
39
102
{ACAD_REACTORS
330
2A
102
}
330
2A
100
AcDbZombieObject
 90
      499
 91
      501
 93
      444
310
42D19858D95C185D1D195C9B90F409028333333333333E3BF0000000000000FB010790141107004050150841D405064090741402480A0350
1001
ACAD
1000
AcDbSavedByObjectVersion
1070
     0
  0
ACAD_PROXY_OBJECT
  5
2B
102
{ACAD_REACTORS
330
2A
102
}
330
2A
100
AcDbZombieObject
 90
      499
 91
      501
 93
      388
310
41119B185D240901404333333333333E3BF0000000000000F9010740A41107004050150841D405064090741402480A1B50
1001
ACAD
1000
AcDbSavedByObjectVersion
1070
     0
  0
ACAD_PROXY_OBJECT
  5
2C
102
{ACAD_REACTORS
330
2A
102
}
330
2A
100
AcDbZombieObject
 90
      499
 91
      501
 93
      476
310
43519B185D15DA5D1A115919D95CD0140901404333333333333E3BF0000000000000F9010740901411070040501600405405064090741402480A1B50
1001
ACAD
1000
AcDbSavedByObjectVersion
1070
     0
  0
ACAD_PROXY_OBJECT
  5
2D
102
{ACAD_REACTORS
330
2A
102
}
330
2A
100
AcDbZombieObject
 90
      499
 91
      501
 93
      412
310
41D1DBDD5C985D5910240902404333333333333E3BF0000000000000F9010740A411070040501641D405064090741402480A1B50
1001
ACAD
1000
AcDbSavedByObjectVersion
1070
     0
  0
ACAD_PROXY_OBJECT
  5
2E
102
{ACAD_REACTORS
330
2A
102
}
330
2A
100
AcDbZombieObject
 90
      499
 91
      501
 93
      500
310
4411DBDD5C985D5915DA5D1A115919D95CD0340902404333333333333E3BF0000000000000F9010740901411070040501600405405064090741402480A1B50
1001
ACAD
1000
AcDbSavedByObjectVersion
1070
     0
  0
ACAD_PROXY_OBJECT
  5
38
102
{ACAD_REACTORS
330
2A
102
}
330
2A
100
AcDbZombieObject
 90
      499
 91
      501
 93
      444
310
42D31A5B995C185D1D195C9B90E409028333333333333E3BF0000000000000FB010790141107004050750841D405064090741402483A0350
1001
ACAD
1000
AcDbSavedByObjectVersion
1070
     0
  0
ACAD_PROXY_OBJECT
  5
33
102
{ACAD_REACTORS
330
2A
102
}
330
2A
100
AcDbZombieObject
 90
      499
 91
      501
 93
      420
310
425499585B1A5CDD1A58D08409028333333333333E3BF0000000000000FB01079019070040501508421405064090741402480A1B40
1001
ACAD
1000
AcDbSavedByObjectVersion
1070
     0
  0
ACAD_PROXY_OBJECT
  5
37
102
{ACAD_REACTORS
330
2A
102
}
330
2A
100
AcDbZombieObject
 90
      499
 91
      501
 93
      412
310
41D51A1A58DAD95B90D409028333333333333E3BF0000000000000FB010790141107004050150C41D405064090741402480A0350
1001
ACAD
1000
AcDbSavedByObjectVersion
1070
     0
  0
DICTIONARYVAR
  5
6A
102
{ACAD_REACTORS
330
67
102
}
330
67
100
DictionaryVariables
280
     0
  1
2
  0
DICTIONARYVAR
  5
6B
102
{ACAD_REACTORS
330
67
102
}
330
67
100
DictionaryVariables
280
     0
  1
1
  0
DICTIONARY
  5
6E
330
3D
100
AcDbDictionary
  3
ACAD_XREC_ROUNDTRIP
360
6F
1001
ACAD
1000
TREAT_AS_HARD
1070
     1
  0
DICTIONARY
  5
6C
330
3C
100
AcDbDictionary
  3
ACAD_XREC_ROUNDTRIP
360
6D
1001
ACAD
1000
TREAT_AS_HARD
1070
     1
  0
DICTIONARY
  5
70
330
3E
100
AcDbDictionary
  3
ACAD_XREC_ROUNDTRIP
360
71
1001
ACAD
1000
TREAT_AS_HARD
1070
     1
  0
XRECORD
  5
6F
102
{ACAD_REACTORS
330
6E
102
}
330
6E
100
AcDbXrecord
102
MATERIAL
148
0.0
149
0.0
149
0.0
 93
        0
 94
      127
282
     0
 72
     1
 77
     1
171
     1
175
     1
179
     1
273
     0
  0
XRECORD
  5
6D
102
{ACAD_REACTORS
330
6C
102
}
330
6C
100
AcDbXrecord
102
MATERIAL
148
0.0
149
0.0
149
0.0
 93
        0
 94
      127
282
     0
 72
     1
 77
     1
171
     1
175
     1
179
     1
273
     0
  0
XRECORD
  5
71
102
{ACAD_REACTORS
330
70
102
}
330
70
100
AcDbXrecord
102
MATERIAL
148
0.0
149
0.0
149
0.0
 93
        0
 94
      127
282
     0
 72
     1
 77
     1
171
     1
175
     1
179
     1
273
     0
  0
ENDSEC
  0
EOF
